Acordes y tablaturas para guitarra

Acordes y Tablaturas
Usuario: Password:

Buscar:
Acordes y Tablaturas >> Letra L >> Acordes de La Rondalla De Saltillo >> Dejare Una Flor
Acordes de Dejare Una Flor, La Rondalla De Saltillo

Dejare Una Flor

La Rondalla De Saltillo






dosos7.fasos7.fasosm.fam.la.la7.mim.re.si7.
sim.
1|-------------------------------------------------------10-8--8-10-8-7-7-7--7-6-7-10-10-9-7-5-7-8-9
2|--------10-8--8-10-8-7-7-7-----7-5--5-7-5---------------------------------------------------------
3|-----------------------------------------7-7-7---7-6-7--------------------------------------------
4|--7-6-7-------------------------------------------------------------------------------------------
5|--------------------------9-8-9-------------------------------------------------------------------
6|--------------------------------------------------------------------------------------------------




            Re
Dejaré una flor
             Si7
por donde un día
                    Mim
sé que tienes que pasar
        Fa#7
y su perfume
                      Sim   La 
sé que tienes que aspirar
                 Re
te dejare una flor


            Re
Dejaré una flor
         Si7
en tu balcón
                   Mim
donte te sueles asomar
          Fa#7
al cielo azul
                       Sim   La 
y las estrellas contemplar
                 Re   RIFF1 y ACOMPAÑAMIENTO
y ahí estará mi flor



Fa#m      Do#7
Eeesa flor
                        Fa#m   Do#7
ha de decirte que te quieeeero
                        Fa#m  Fa#m-Fam-Mim
te ha de decir que soy sinceeeeeeerooo
           La7         Re  RIFF1
si tu la quieres deshojar

Acompañamiento

6|----------------------------------------------------------------------------------------------------------
5|----------------------------------------------------------------------------------------------------------
4|----------------------------------------------------------------------------------------------------------
3|----------------------------------------------------------------------------------------------------------
2|------------------------5--4--5--------------------------------3--2--3--------------5----3--3/5--5----3---
1|-2--3--5--5/7--5--3--2-----------2--2/3---0--2--3--5--3--2--0-----------0--0/2----2-----------------2-----


Fa#m     Do#7
Tóóómala
                       Fa#m   Do#7
entre tus manos vida míííííía
                    Fa#m   Fa#m-Fam-Mim
y asi verás con alegrííííííaaaaa
                       La7
que nunca te podré olvidar


            Re
Dejaré una flor

 RIFF2 y ACOMPAÑAMIENTO

?Entre la gloria de tu vida
Dejare la flor de mí existir
Y al deshojarla conocerás
El misterio de tu ser
Te dejare una flor
Para que la lleves
Del perfume de tus días?



Fa#m      Do#7
Eeesa flor
                        Fa#m   Do#7
ha de decirte que te quieeeero
                        Fa#m  Fa#m-Fam-Mim
te ha de decir que soy sinceeeeeeerooo
           La7         Re  RIFF1 y ACOMPAÑAMIENTO
si tu la quieres deshojar



Fa#m     Do#7
Tóóómala
                       Fa#m   Do#7
entre tus manos vida míííííía
                    Fa#m   Fa#m-Fam-Mim
y asi verás con alegrííííííaaaaa
                       La7
que nunca te podré olvidar


            Re
Dejaré una floooor...

Que te parecio? Calificalo con estrellas!!

Rating: 5.1/10 (18 votos)

Este fichero es trabajo propio de su transcriptor y representa su interpretación personal de la canción. El material contenido en esta página es para exclusivo uso privado, por lo que se prohibe su reproducción o retransmisión, así como su uso para fines comerciales.


Comentario de rondalla_bachilleres_apatzingan
pues aqui una cancion que saque, espero les guste jejeje
Deja tus comentarios:

Letras de La Rondalla De Saltillo
Letras de canciones | Musica Independiente