Acordes y tablaturas para guitarra

Acordes y Tablaturas
Usuario: Password:

Buscar:
Acordes y Tablaturas >> Letra C >> Acordes de Caifanes >> AQUÍ NO ES ASI
Tablatura de AQUÍ NO ES ASI, Caifanes

AQUÍ NO ES ASI

Caifanes






AQUÍ NO ES ASI - CAIFANES

UN SALUDO DESDE NICARAGUA 
TE AMO CARLA, TU CALMAS LAS TORMENTAS Y ME DAS DESCANSO

CAIFANES - JAGUARES LO MEJOR
FIJATE BIEN EN LA CUERDA QUE TOCAS

[email protected]

INTRO

G |--5/7--7-7-7--5-5-5--7-7-5--3-----3-------3----|
D |------------------------------3-5---5-3-5------|

B |--------------------6-6-------|
G |--5/7--7-7-7--5-5-5-----7~~---|

   
Riff

G |--5/7--7-7-7--5-5-5--7-7-5--3-----3-------3--------|
D |------------------------------3-5---5-3-5----------|

G|-5/7--7-7-7--5--3-2-3-2----|  
D|------------------------5--|
          



                   4 veces
D |---0-3-0---0-3-0-3-|--5---5-3-5------5-3-|
A |--1------3---------|----5-------5--5-----|

D |----------3-3--2--3--5-|----------3-3--2--3--4-|
A |------0-3--------------|------0-3--------------|
E |--1-1------------------|--1-1------------------|
           
D |--5---5-3--5------5-3--|--5---5-3--5-------5-3-|
A |----5--------5--5------|----5---------5--5-----|
E |-----------------------|-----------------------|

             8 veces            4 veces      
E |--------------------||--18~~~-15--20--15--|
B |--18~~~-15--18--15--||-----------------------|
G |--------------------||-----------------------|


E |--18~~~-15--20--------------------------------------------|
B |----------------20-20-20-18-18-18-16-16-16--15--13--------|
G |---------------------------------------------------15-14--| 

B |----------------------|  |---------------6-6----|
G |----/7------5---------|  |----/7---5-5-5------5-| 
D |------------------8---|  |----------------------|

G |----/7---5-5-5--7-7---|  |----/7---5-5-5--7-7---|
D |--------------------8-|  |--------------------5-|


CORO
            4 veces                 3 veces
E |----------------------|--20~~~~~~--15---18--15-|
B |--18~~~~~--15--18--15-|------------------------|

                                   4 veces
E |--20~~~~~--15-18-15---|----------------------|
B |----------------------|--18--15----18~~~~~~~-|
G |----------------------|---------15-----------|
E |----------------------|----------------------|


E |--20--17----20--17----|--17------------------|
B |---------18--------18-|-----18----18~~~~~~~--|
G |----------------------|--------17------------|


G |--17--14----17--14----|--17--14----14---12\--|
D |---------15--------15-|---------15-----------|

SOLO
                
E |-----------------------|
B |-----------------------|
G |------------------10---|
D |-10-8-7----------------|
A |--------10-8-7-1-------|
E |-----------------------|

B |---------6-6--5-6-8-6--5-2-5--6-6--5-6-7-8--------8~-|
G |-------------------------------------------7---7-----|
D |---7-10---------------------------------------8------|
A |-8---------------------------------------------------|

B |-8-10-11-10--8-11-10--8-11-10--8--------6-6------6-----|
G |---------------------------------10-8-7------2-5-------|


B |-----------10-8-5-----5----------5-11---|
G |-5-7-8-7-5--------8-7---7------7--------|
D |---------------------------8-8----------|

G |----15/17---18-18-18-18-18-17-15-17-15------|
D |-15-15/17---19-19-19-19-19-17-15-17-15-14~~-|

Que te parecio? Calificalo con estrellas!!

Rating: 2.7/10 (20 votos)

Este fichero es trabajo propio de su transcriptor y representa su interpretación personal de la canción. El material contenido en esta página es para exclusivo uso privado, por lo que se prohibe su reproducción o retransmisión, así como su uso para fines comerciales.


Deja tus comentarios:

Letras de Caifanes
Letras de canciones | Musica Independiente