Enviado por: lau.rock
Agrandar Letra
Reducir Letra
Imprimir


Otras Versiones de Spiderman:




Ramones, Spiderman

1-------------------------------------------------
2-------------------------------------------------
3-------------------------------------------------
4----4--7-7-7-6-3----4--7-7-7-6-3-----------------
5--5-------------5--5-------------5---------------
6-------------------------------------------------

1-------------------------------------------------
2-------------------------------------------------
3-------------------------------------------------
4-----------------------4-7-7-7-6-3-5-------------
5----2-5-5-5-4-1------5---------------------------
6--3-------------3--3-----------------------------

1-------------------------------------------------
2-------------------------------------------------
3-------------------------------------------------
4-------------------------------------------------
5---------------5555555---------------------------
6--555555-33333-----------------------------------

q lo disfruten...
Aviso: Este fichero es trabajo propio de su transcriptor y representa su interpretación personal de la canción. El material contenido en esta página es para exclusivo uso privado, por lo que se prohibe su reproducción o retransmisión, así como su uso para fines comerciales.
comentario del colaborador: lo saque asi nomas, suena igual ...pero no lo copie!!

Califica esta canción


Comentarios en Facebook