Patricio Rey Y Sus Redonditos De Ricota, El Arte Del Buen Comer

Patricio Rey y sus Redonditos de Ricota
Lobo Suelto Cordero Atado (PARTE 2)
El Arte del Buen Comer. 


INTRO:  
e|------------------------------------|
B|------------------------3-3-----3-3-|
G|------------------------3-3-----3-3-| X2
D|------------------------3-3-----3-3-|
A|------------------------------------|
E|--0-0-3-3-0-0-3-3-0-00------0-0-----|
    PM------------------|     PM-|                                                                      
   
e|-------------------------------------------------------3-3------|
B|------------------------------3-3----------------------3--3-----|
G|------------------------------3-3----------------------3---3----|
D|------------------------------3-3---------------------------3---|
A|----------------------------------------------------------------|
E|-0-0-3-3-0-0-3-3-0-0-3-3-0-00------0-0-3-3-0-0-3-3-0------------|
   PM--------------------------|     PM---------------|


DURANTE EL VERSO: 
 
(Riff 1)   
  Pituca cree... 
e|----------------------------------------------------------------|
B|------------------------------3-3----------------------3-33-----|
G|------------------------------3-3----------------------3-33-----|
D|------------------------------3-3----------------------3-33-----|
A|----------------------------------------------------------------|
E|-0-0-3-3-0-0-3-3-0-0-3-3-0-00------0-0-3-3-0-0-3-3-0------------|
   PM--------------------------|     PM---------------|

(Riff 2)
    Y sabe bien... 
e|----------------------------------|
B|----------------------------------| 
G|----------------------------------|
D|--4---------4--------4/9----------|
A|--4---------4--------4/9----------|
E|--2--22-22-22--22-22-2/7-77-77-77-|
        

PUENTE:
e|-----------------|
B|-----------------|
G|-----------------|
D|--99/77/55/44-2--|                
A|--99/77/55/44-2--|
E|--77/55/33/22-0--|



ESTRIBILLO:

e|--------------------------------------------------------------------
B|--------------------------------------------------------------------
G|--------------------------------------------------------------------
D|--10------10/7-------7/10-------10/9-------9/7-------7/9-------9/10-
A|--10------10/7-------7/10-------10/9-------9/7-------7/9-------9/10-
E|--8-88-88--8/5-55-55-5/-8-88-88--8/7-77-77-7/5-55-55-5/7-77-77-7/-8-

e|-------------------
B|-------------------
G|-------------------
D|-------10/9-------- + PUENTE
A|-------10/9--------
E|-88-88--8/7-77-77--


(Riff 1)
Pituca cree que es el mejor
El mejor culo para su sillón
(Riff 2)                               (PUENTE)   Sigue igual en
Y sabe bien que hoy su chance es gorda.           todos los versos.  

Le ha puesto al fin, su nombre al toallón
Compro marfiles de la selva del Congo
Y en su coco siempre hay un petardo

ESTRIBILLO 1
Rodeado de gran danesas
Que se salen de la blusa  
Con bestial dulzura, Rush
Y risas de ?Barón B?  ------>    No creo que diga    
Así pituca se la cree!!           ?Barón B?  


Aun ayer no ligaba el amor
Y no enceraba nunca el bastón
Su boca olía como un cenicero

Tuvo un golpe de audacia y se dio
De timbero fogoso y feroz
De los que nunca muestran todo el mazo

ESTRIBILLO 2
Y hoy come la real manzana
Y no deja ni pepita
Usa sal de melodrama
Pero sin abusar
Y así pituca se la cree!

Solo de saxo y viola?
Durante el solo toca:

A#5 Em5 F#5 B5 B#5 B5 A#5 B#5 B5
PUENTE (Solo de Skay)
B#5 B5 PUENTE + La 2ª parte de la intro, la que no se repite.



Pituca insiste en que es el mejor
El mejor culo para su sillón
Y sabe bien que hoy su chance es gorda

Tuvo un golpe de audacia y se dio
De timbero fogoso y feroz
De los que nunca muestran todo el mazo 

ESTRIBILLO 2
Y hoy come la real manzana
Y no deja ni pepita
Usa sal de melodrama
Pero sin abusar
Y así pituca se la cree!

PUENTE Y FINAL.


 Acordes utilizados:

 A#5      B5       G5       F#5      Em5      B#5
D-7-     D-9-     D-5-     D-4-     D-2-     D-10-
A-7-     A-9-     A-5-     A-4-     A-2-     A-10-
E-5-     E-7-     E-3-     E-2-     E-0-     E--8-


PM: Palm Mute  
/ : Slide
Aviso: Este fichero es trabajo propio de su transcriptor y representa su interpretación personal de la canción. El material contenido en esta página es para exclusivo uso privado, por lo que se prohibe su reproducción o retransmisión, así como su uso para fines comerciales.
comentario del colaborador: falta el solo... si alguien lo tiene por favor mandenmelo a: [email protected] cualquier cosa tambien escriban... "...nunca un perro mira al cielo..."

Califica esta canción


Comentarios en Facebook