Enviado por:
linktheminish

The Beatles, Blackbird

NOTA: Aqui no se usan acordes sino las notas en la guitarra que estan arriba de la letra recuerda solo notas!!
Abajo encuentras las notas

Intro: G a7 G/B G1
  G        a7          G/B   G1
Blackbird singing in the dead of night
  C        Cs          D   D#  Em  Eb
Take these broken wings and learn to fly
D  C#  C Cm
All your life
G/B          A7               D7sus4      G
You were only waiting for this moment to arise

Puente: C G/B A7 D7sus4 G
 Fad2   Em    Dad4     Bb6-C
Black..........bird........ fly
 Fad2   Em    Dad4     Bb6-A7
Blackbird fly
          Dm7sus4        G Am7  G/B G1 etc.
Into the light of the dark black night

Lo repites en la cancion
NOTAS!!!!!!
 G
e-----------
B-----------
G-----------
D-----------
A-----------
E--3--------
 a7
e-----------
B--1--------
G-----------
D-----------
A-----------
E-----------
 G/B
e-----------
B-3---------
G-----------
D-----------
A-2---------
E-----------
 G1
e-----------
B-12--------
G-----------
D-----------
A-10--------
E-----------
 C
e-----------
B-5---------
G-----------
D-----------
A-3---------
E-----------
 C#
e-3---------
B-----------
G-----------
D-----------
A-5---------
E-----------
 D
e-----------
B-7---------
G-----------
D-----------
A-5---------
E-----------
 D#
e-5---------
B-----------
G-----------
D-----------
A-6---------
E-----------
 Em
e-----------
B-8---------
G-----------
D-----------
A-7---------
E-----------
 Eb
e-----------
B-8---------
G-----------
D-----------
A-6---------
E-----------
 A7
e-----------
B-2---------
G-----------
D-----------
A-0---------
E-----------
 D7sus4
e-----------
B-1---------
G-----------
D-----------
A-----------
E-----------
 Fad4
e-----------
B--11-------
G-----------
D-----------
A--8--------
E-----------
 Dad4
e-----------
B--6--------
G-----------
D-----------
A--5--------
E-----------
 Bb6
e-----------
B--3--------
G-----------
D-----------
A--1--------
E-----------

Eso sería todo si tienes dudas oh necesitas ayuda mi mail es [email protected]
Aviso: Este fichero es trabajo propio de su transcriptor y representa su interpretación personal de la canción. El material contenido en esta página es para exclusivo uso privado, por lo que se prohibe su reproducción o retransmisión, así como su uso para fines comerciales.
comentario del colaborador: la letra de la cancion OJO!!! la letra la saque de http://www.beatlweb.com/letras%20white1/cancioblackbird.htm

Califica esta canción


Comentarios en Facebook