Acordes y tablaturas para guitarra

Acordes y Tablaturas
Usuario: Password:

Buscar:
Acordes y Tablaturas >> Letra R >> Acordes de Rata Blanca >> El Circulo De Fuego
Tablatura de El Circulo De Fuego, Rata Blanca

El Circulo De Fuego

Rata Blanca






|-----------------------------------
|-----------------------------------
|-----------------------------------
|-------6-----7-----4-----6---------x2
|-4-4-4---4-4---4-4---4-4----7-6----
|-----------------------------------

|--------------------------------
|--------------------------------
|--------------------------------
|-------2-----4-----1-----2------
|-0-0-0---0-0---0-0---0-0--------
|---------------------------5-4--

|------------------------
|------------------------
|------------------------
|------------------------
|-------2-4-------4-6----
|-2-2-2-----4-4-4--------

|-----------------------------------
|-----------------------------------
|-----------------------------------
|-------6-----7-----4-----6---------x2
|-4-4-4---4-4---4-4---4-4----7-6----
|-----------------------------------

|--------------------------------
|--------------------------------
|--------------------------------
|-------2-----4-----1-----2------
|-0-0-0---0-0---0-0---0-0--------
|---------------------------5-4--

|------------------------------
|------------------------------
|------------------------------
|------------------------------
|-------2-4-------3--4--6--7---
|-2-2-2------4--5--------------


  forma ireal,  la      cara de la
|-------------------------------------------
|-------------------------------------------
|-------------------------------------------
|-------------------------------------------
|-4-4-4-4-4-4-4-4-4-4-4-4-------------------
|-------------------------2-2-2-2-2-2-2-2-2-

luna se ocul     to, la          noche oprime en
|-------------------------------------------------
|-------------------------------------------------
|-------------------------------------------------
|-------------------------------------------------
|-2-2-2-2-2-2-2-2-4-4-4-4-4-4-4-4-----------------
|---------------------------------5-5-5-5-5-5-5-5-

 mi corazon
|----------------------------
|----------------------------
|----------------------------
|----------------------------
|-2-2-2-2-2-2-2-2--3-4-6-----
|----------------------------

  la oscuridada  me      sigue como un
|-------------------------------------------
|-------------------------------------------
|-------------------------------------------
|-------------------------------------------
|-4-4-4-4-4-4-4-4-4-4-4-4-------------------
|-------------------------2-2-2-2-2-2-2-2-2-

lobo por      detras          ansioso ya de
|-------------------------------------------------
|-------------------------------------------------
|-------------------------------------------------
|-------------------------------------------------
|-2-2-2-2-2-2-2-2-4-4-4-4-4-4-4-4-----------------
|---------------------------------5-5-5-5-5-5-5-5-

verme caer
|----------------------------
|----------------------------
|----------------------------
|----------------------------
|------------------3-4-6-----
|-4-4-4-4-4-4-4-4------------

     subliminal, con fuerza se escu
|-------------------------------------------
|-------------------------------------------
|-------------------------------------------
|-------------------------------------------
|-------------------------------------------
|-2-2-2-2-2-2-2-2-2-2-2-2-2-2-2-2-2-2-2-2-2-

 cho         el  rezo de un- viejo     con-
|-----------------------------------------
|-----------------------------------------
|-----------------------------------------
|-----------------------------------------
|-4-4-4-4-4-4-4-4-------------------------
|-----------------5-5-5-5-5-5-5-5-4-4-4-4-

juro
|-----------------------------------------------
|-----------------------------------------------
|-----------------------------------------------
|-----------------------------------------------
|------------------6-7-6------------------------
|-2-2-2-2-2-2-2-2--4-5-4--2-4-5--4-2-0--4--2-0--

tu            ya            debes ser     capaz
-------------------------------------------------------
-----------------------------4-------------------------
-6-------------6-------------4-------------6-----------
-6-------------7---------------------------6-----------
-4-4-4-4-4-4-4---4-4-4-4-4-4---4-4-4-4-4-4-4-4-4-7-6-4-
-------------------------------------------------------

de invocar el           circulo de fue-----go------
---------------------------------------------------
----------------------------------------------5-4--
------------------------------------1------4--4-4--
-7-----------------------4----------2------4-------
-7-----------------------4----------2------2-------
-5-5-5-5-5-5-5-5-5-7-5-4-2----------0--------------

 y            no            dejes     escapar
-------------------------------------------------------
-----------------------------4-------------------------
-6-------------6-------------4-------------6-----------
-6-------------7---------------------------6-----------
-4-4-4-4-4-4-4---4-4-4-4-4-4---4-4-4-4-4-4-4-4-4-7-6-4-
-------------------------------------------------------

la mision            sa grada que
---------------------------------
---------------------------------
---------------------------------
-7-----------------------4-------
-7-----------------------4-------
-5-5-5-5-5-5-5-5-5-7-5-4-2-------

hay en tu  des--ti--i-no
-----------------------------
-----------------------------
-----------------------------
-----------------------------
-----------------------------
--------4---4---4---4--------

-----------------------------------
-----------------------------------
-----------------------------------
-------6-----7-----4-----6---------x2
-4-4-4---4-4---4-4---4-4----7-6----
-----------------------------------

--------------------------------
--------------------------------
--------------------------------
-------2-----4-----1-----2------
-0-0-0---0-0---0-0---0-0--------
---------------------------5-4--

------------------------------
------------------------------
------------------------------
------------------------------
-------2-4-------3--4--6--7---
-2-2-2------4--5--------------


 voy a escuchar  la     voz que dentro
-------------------------------------------
-------------------------------------------
-------------------------------------------
-------------------------------------------
-4-4-4-4-4-4-4-4-4-4-4-4-------------------
-------------------------2-2-2-2-2-2-2-2-2-

 mio me       dira         por cual  sendero
-------------------------------------------------
-------------------------------------------------
-------------------------------------------------
-------------------------------------------------
-2-2-2-2-2-2-2-2-4-4-4-4-4-4-4-4-----------------
---------------------------------5-5-5-5-5-5-5-5-

 debo tomar
----------------------------
----------------------------
----------------------------
----------------------------
-2-2-2-2-2-2-2-2--3-4-6-----
----------------------------

 se que al final la     mas pequeña es--
-------------------------------------------
-------------------------------------------
-------------------------------------------
-------------------------------------------
-4-4-4-4-4-4-4-4-4-4-4-4-------------------
-------------------------2-2-2-2-2-2-2-2-2-

 trella puede    mas      que    la terrible
-------------------------------------------------
-------------------------------------------------
-------------------------------------------------
-------------------------------------------------
-2-2-2-2-2-2-2-2-4-4-4-4-4-4-4-4-----------------
---------------------------------5-5-5-5-5-5-5-5-

 oscuridad
----------------------------
----------------------------
----------------------------
----------------------------
------------------3-4-6-----
-4-4-4-4-4-4-4-4------------

     y me veras, buscando la ra--
-------------------------------------------
-------------------------------------------
-------------------------------------------
-------------------------------------------
-------------------------------------------
-2-2-2-2-2-2-2-2-2-2-2-2-2-2-2-2-2-2-2-2-2-

-zon         que llega desde el infi--
-----------------------------------------
-----------------------------------------
-----------------------------------------
-----------------------------------------
-4-4-4-4-4-4-4-4-------------------------
-----------------5-5-5-5-5-5-5-5-4-4-4-4-

-nitro
-----------------------------------------------
-----------------------------------------------
-----------------------------------------------
-----------------------------------------------
------------------6-7-6------------------------
-2-2-2-2-2-2-2-2--4-5-4--2-4-5--4-2-0--4--2-0--

tu            ya            debes ser     capaz
-------------------------------------------------------
-----------------------------4-------------------------
-6-------------6-------------4-------------6-----------
-6-------------7---------------------------6-----------
-4-4-4-4-4-4-4---4-4-4-4-4-4---4-4-4-4-4-4-4-4-4-7-6-4-
-------------------------------------------------------

de invocar el           circulo de fue-----go------
---------------------------------------------------
----------------------------------------------5-4--
------------------------------------1------4--4-4--
-7-----------------------4----------2------4-------
-7-----------------------4----------2------2-------
-5-5-5-5-5-5-5-5-5-7-5-4-2----------0--------------

 y            no            dejes     escapar
-------------------------------------------------------
-----------------------------4-------------------------
-6-------------6-------------4-------------6-----------
-6-------------7---------------------------6-----------
-4-4-4-4-4-4-4---4-4-4-4-4-4---4-4-4-4-4-4-4-4-4-7-6-4-
-------------------------------------------------------

la mision            sa grada que
---------------------------------
---------------------------------
---------------------------------
-7-----------------------4-------
-7-----------------------4-------
-5-5-5-5-5-5-5-5-5-7-5-4-2-------

hay en tu  des--ti--i-no
-----------------------------
-----------------------------
-----------------------------
-----------------------------
-----------------------------
--------4---4---4---4--------

-----------------------------------
-----------------------------------
-----------------------------------
-------6-----7-----4-----6---------x2
-4-4-4---4-4---4-4---4-4----7-6----
-----------------------------------

--------------------------------
--------------------------------
--------------------------------
-------2-----4-----1-----2------
-0-0-0---0-0---0-0---0-0--------
---------------------------5-4--

------------------------------
------------------------------
------------------------------
------------------------------
-------2-4-------3--4--6--7---
-2-2-2------4--5--------------

-----------------------
-----------------------
----------5--6--8------
-4--6--7---------------
-----------------------
-----------------------

solo:



---------------------------------------
---------------------------------------
----9-11-11b--11-9-11--9----9----------
-11----------------------11----11-9-11-
---------------------------------------
---------------------------------------

--------------------------------------
--------------------------------------
--------------------------------------
-9-6-9--6-4-6--4-2-4--2---2--4b-4-2---
------------------------4-----------4-
--------------------------------------

--------------------
--------------------
-9-9-11-x--11-9-----
-9-9-11-x--11-9-----
--------------------
--------------------

---------------------------------------
---------------------------------------
----9-11-11b--11-9-11--9----9----------
-11----------------------11----11-9-11-
---------------------------------------
---------------------------------------

--------------------------------------------
--------------------------------------------
------4-----4------4---4---4-----------4bb--
-9-6----6-4---6-4----6---6---6--4-6-4-------
--------------------------------------------
--------------------------------------------

----------------------------------
--------------12--12--------------
----9-11-9-11b----11b--11brp9-----
-11---------------------------11--
----------------------------------
----------------------------------

----------------------------------------------
-9b-9brp7--------7----------------------------
----------9bss-----9-8-6----------------------
-------------------------9-7-9-6h7p6---7-6----
-------------------------------------9--------
----------------------------------------------

------------------------------------------------
----------------------------7-10-9-7------------
-6-9-8-6-9-13-11-9-8-11-9-8-----------9-13-11-9-
------------------------------------------------
------------------------------------------------
------------------------------------------------

-----------12-16-14-12-16-19-17-16-----17-17---
-9-12-10-9--------------------------17b---17b----
----------------------------------------------
---------------------------------------------
---------------------------------------------
----------------------------------------------

----------------------------------
----------12-----12---------------
----9-11b----11b-----9-11-9-------
-11-------------------------11----
----------------------------------
----------------------------------

----------------------------------------------------
----------------------------------------------------
----------------------------------------------------
----------------------------------------------------
-------4-0-6-0-7-0-4-0-6-0-7-0-9-0-6-0-7-0-9-0-11ss-
--/--4----------------------------------------------


en esta parte suenan dos guitarras

el 1 va tocado con el 1
el 2 va tocado con el 2..y asi

-12-9---9-12-9---9-12-9---9-12-9---
------9--------9--------9--------9-
----------------------------------- ---------/
-----------------------------------          /
-----------------------------------          /
-----------------------------------          /
                                             / 1
-9-12-9---9-12-9---9-11-8---8-11-8---8--     /
--------9--------9--------9--------9----     /
---------------------------------------- ----/
----------------------------------------
----------------------------------------
----------------------------------------



--16-12----12-16-12----12-16-12----12-16-12----
--------14----------14----------14----------14-
----------------------------------------------- --------/
-----------------------------------------------         /
-----------------------------------------------         /
-----------------------------------------------         /
                                                        / 1
-12-16-12----12-16-12----12-14-11----11-14-11----11-    /
----------14----------14----------13----------13----    /
---------------------------------------------------- ---/
----------------------------------------------------
----------------------------------------------------
----------------------------------------------------


-12-9---9-12-9---9-12-9---9-12-9---
------9--------9--------9--------9-
-----------------------------------
----------------------------------- ------------/
-----------------------------------             /
-----------------------------------             /
                                                /
-9-12-9---9-12-9---9-14-11----11-14-11----11-   / 2
--------9--------9---------12----------12----   /
--------------------------------------------- --/
---------------------------------------------
---------------------------------------------
---------------------------------------------

-16-12----12-16-12----12-16-12----12-16-12----
-------14----------14----------14----------14-
----------------------------------------------
----------------------------------------------
---------------------------------------------- --------/
----------------------------------------------         /
                                                       /
-12-16-12----12-16-12----12-17-14----14-17-14----14-   /  2
----------14----------14----------16----------16----   /
---------------------------------------------------- --/
----------------------------------------------------
----------------------------------------------------
----------------------------------------------------

-16-12----12-16-12----12-16-12----12-16-12----
-------12----------12----------12----------12-
----------------------------------------------
---------------------------------------------- ---------/
----------------------------------------------          /
----------------------------------------------          /
                                                        /
-12-16-12----12-16-12----12-16-12----12-16-12----12-    /  3
----------12----------12----------12----------12----    /
---------------------------------------------------- ---/
----------------------------------------------------
----------------------------------------------------
----------------------------------------------------

-19-16----16-19-16----16-19-16----16-19-16----
-------17----------17----------17----------17-
----------------------------------------------
---------------------------------------------- --------/
----------------------------------------------         /
----------------------------------------------         /
                                                       /  3
-16-19-16----16-19-16----16-19-16----16-19-16----16-   /
----------17----------17----------17----------17----   /
---------------------------------------------------- --/
----------------------------------------------------
----------------------------------------------------
----------------------------------------------------

-14-12----12-14-12----12-14-12----12-14-12----
-------12----------12----------12----------12-
----------------------------------------------
---------------------------------------------- ------------/
----------------------------------------------             /
----------------------------------------------             /
                                                           /
-12-14-11----11-14-11----11-14-11----11-14-11----11-       /  4
----------12----------12----------12----------12----       /
---------------------------------------------------- ------/
----------------------------------------------------
----------------------------------------------------
----------------------------------------------------

-17-14----14-17-14----14-17-14----14-17-14----
-------16----------16----------16----------16-
----------------------------------------------
---------------------------------------------- -----------/
----------------------------------------------            /
----------------------------------------------            /
                                                          /
-14-17-14----14-17-14----14-17-14----14-17-14----14-      / 4
----------16----------16----------16----------16----      /
---------------------------------------------------- -----/
----------------------------------------------------
----------------------------------------------------
----------------------------------------------------


-12-9---9-12-9---9-12-9---9-12-9---
------9--------9--------9--------9-
----------------------------------- ---------/
-----------------------------------          /
-----------------------------------          /
-----------------------------------          /
                                             / 1
-9-12-9---9-12-9---9-11-8---8-11-8---8--     /
--------9--------9--------9--------9----     /
---------------------------------------- ----/
----------------------------------------
----------------------------------------
----------------------------------------



--16-12----12-16-12----12-16-12----12-16-12----
--------14----------14----------14----------14-
----------------------------------------------- --------/
-----------------------------------------------         /
-----------------------------------------------         /
-----------------------------------------------         /
                                                        / 1
-12-16-12----12-16-12----12-14-11----11-14-11----11-    /
----------14----------14----------13----------13----    /
---------------------------------------------------- ---/
----------------------------------------------------
----------------------------------------------------
----------------------------------------------------


-12-9---9-12-9---9-12-9---9-12-9---
------9--------9--------9--------9-
-----------------------------------
----------------------------------- ------------/
-----------------------------------             /
-----------------------------------             /
                                                /
-9-12-9---9-12-9---9-14-11----11-14-11----11-   / 2
--------9--------9---------12----------12----   /
--------------------------------------------- --/
---------------------------------------------
---------------------------------------------
---------------------------------------------

-16-12----12-16-12----12-16-12----12-16-12----
-------14----------14----------14----------14-
----------------------------------------------
----------------------------------------------
---------------------------------------------- --------/
----------------------------------------------         /
                                                       /
-12-16-12----12-16-12----12-17-14----14-17-14----14-   / 2
----------14----------14----------16----------16----   /
---------------------------------------------------- --/
----------------------------------------------------
----------------------------------------------------
----------------------------------------------------

-16-12----12-16-12----12-16-12----12-16-12----
-------12----------12----------12----------12-
----------------------------------------------
---------------------------------------------- ---------/
----------------------------------------------          /
----------------------------------------------          /
                                                        /
-12-16-12----12-16-12----12-16-12----12-16-12----12-    /  3
----------12----------12----------12----------12----    /
---------------------------------------------------- ---/
----------------------------------------------------
----------------------------------------------------
----------------------------------------------------

-19-16----16-19-16----16-19-16----16-19-16----
-------17----------17----------17----------17-
----------------------------------------------
---------------------------------------------- --------/
----------------------------------------------         /
----------------------------------------------         /
                                                       / 3
-16-19-16----16-19-16----16-19-16----16-19-16----16-   /
----------17----------17----------17----------17----   /
---------------------------------------------------- --/
----------------------------------------------------
----------------------------------------------------
----------------------------------------------------

-14-12----12-14-12----12-14-12----12-14-12----
-------12----------12----------12----------12-
----------------------------------------------
---------------------------------------------- ----/
----------------------------------------------     /
----------------------------------------------     /
                                                   /
-12-14-11----11-14-11----11-14ss-                  / 4
----------12----------12---------                  /
--------------------------------- -----------------/
---------------------------------
---------------------------------
---------------------------------

-17-14----14-17-14----14-17-14----14-17-14----
-------16----------16----------16----------16-
----------------------------------------------
---------------------------------------------- -----/
----------------------------------------------      /
----------------------------------------------      /
                                                    /
-14-17-14----14-17-14----14-17ss-                   / 4
----------16----------16---------                   /
--------------------------------- ------------------/
---------------------------------
---------------------------------
---------------------------------


-12-11-9-11-9----9---------------9-11-
--------------12---12-10-9-10-12------
--------------------------------------  x4
--------------------------------------
--------------------------------------
--------------------------------------

-14-12-11-12-11----11----------------11-12-
----------------14----14-12-10-12-14-------
-------------------------------------------  x4
-------------------------------------------
-------------------------------------------
-------------------------------------------

-16-14-12-14-12----12----------------12-14-
----------------16----16-14-12-14-16-------
------------------------------------------- x4
-------------------------------------------
-------------------------------------------
-------------------------------------------

-17-16-14-16-14----14----------------14-16-
----------------17----17-16-14-16-17-------
-------------------------------------------  x3
-------------------------------------------
-------------------------------------------
-------------------------------------------

-17-16-14------------------------------------------------------
----------17-16-14--------------------14b-14-12----------------
-------------------16-14-13---------------------14-13-11-11bss-
----------------------------16-14-13---------------------------
---------------------------------------------------------------
---------------------------------------------------------------


    subliminal, con fuerza se escu
-------------------------------------------
-------------------------------------------
-------------------------------------------
-------------------------------------------
-------------------------------------------
-2-2-2-2-2-2-2-2-2-2-2-2-2-2-2-2-2-2-2-2-2-

 cho         el  rezo de un- viejo     con-
-----------------------------------------
-----------------------------------------
-----------------------------------------
-----------------------------------------
-4-4-4-4-4-4-4-4-------------------------
-----------------5-5-5-5-5-5-5-5-4-4-4-4-

-juro
-----------------------------------------------
-----------------------------------------------
-----------------------------------------------
-----------------------------------------------
------------------6-7-6------------------------
-2-2-2-2-2-2-2-2--4-5-4--2-4-5--4-2-0--4--2-0--

tu            ya            debes ser     capaz
-------------------------------------------------------
-----------------------------4-------------------------
-6-------------6-------------4-------------6-----------
-6-------------7---------------------------6-----------
-4-4-4-4-4-4-4---4-4-4-4-4-4---4-4-4-4-4-4-4-4-4-7-6-4-
-------------------------------------------------------

de invocar el           circulo de fue-----go------
---------------------------------------------------
----------------------------------------------5-4--
------------------------------------1------4--4-4--
-7-----------------------4----------2------4-------
-7-----------------------4----------2------2-------
-5-5-5-5-5-5-5-5-5-7-5-4-2----------0--------------

 y            no            dejes     escapar
-------------------------------------------------------
-----------------------------4-------------------------
-6-------------6-------------4-------------6-----------
-6-------------7---------------------------6-----------
-4-4-4-4-4-4-4---4-4-4-4-4-4---4-4-4-4-4-4-4-4-4-7-6-4-
-------------------------------------------------------

la mision            sa grada que
---------------------------------
---------------------------------
---------------------------------
-7-----------------------4-------
-7-----------------------4-------
-5-5-5-5-5-5-5-5-5-7-5-4-2-------

hay en tu  des--ti--i-no
-----------------------------
-----------------------------
-----------------------------
-----------------------------
-----------------------------
--------4---4---4---4--------

-----------------------------------
-----------------------------------
-----------------------------------
-------6-----7-----4-----6---------
-4-4-4---4-4---4-4---4-4----7-6----
-----------------------------------

--------------------------------
--------------------------------
--------------------------------
-------2-----4-----1-----2------
-0-0-0---0-0---0-0---0-0--------
---------------------------5-4--

------------------------------------
------------------------------------
------------------------------------
------------------------------------
-------4-----6-----2-----4---7-6----
-2-2-2---2-2---2-2---2-2------------

-----------------------------------
-----------------------------------
-----------------------------------
-------6-----7-----4-----6---------x2
-4-4-4---4-4---4-4---4-4----7-6----
-----------------------------------

--------------------------------
--------------------------------
--------------------------------
-------2-----4-----1-----2------
-0-0-0---0-0---0-0---0-0--------
---------------------------5-4--

------------------------------------
------------------------------------
------------------------------------
------------------------------------
-------4-----6-----2-----4----------
-2-2-2---2-2---2-2---2-2------------

final

-----------------------------------------
----------------------------------5/-----
-------4--------------------------4/-----
-4-5-6---6-5-4h5p4-----4h5p4------2/-----
-------------------7-4-------7-4---------
-----------------------------------------

Que te parecio? Calificalo con estrellas!!

Rating: 8.3/10 (98 votos)

Este fichero es trabajo propio de su transcriptor y representa su interpretación personal de la canción. El material contenido en esta página es para exclusivo uso privado, por lo que se prohibe su reproducción o retransmisión, así como su uso para fines comerciales.


Comentario de pAcOzErO
www.lacuerda.com
Deja tus comentarios:

Letras de Rata Blanca
Letras de canciones | Musica Independiente