Enviado por: jose manuel bonales barajas
Agrandar Letra
Reducir Letra
Imprimir


Otras Versiones de Siempre Te Amare:









Los Reno, Siempre Te Amare

intro
        E           E7          A           Am
1-------0-----0-----0----0------0-----0-----0-------0--
2-----0-----0-----3----3------2-----2-----1------1-----
3---1-----1-----1-----1-----2-----2-----2------2-------
4-2-----2-----2-----2-----2-----2-----2------2---------
5------------------------------------------------------
6------------------------------------------------------

(E-G#m-Gm-F#m-B7)

         E        G#m             A           Am
vualve a mi dulce bien que bien sabes que te espero

      E    G#m-Gm-F#m  B7       E     G#m-Gm-F#m-B7       
y yo nunca nunca jamas   te lovidare

    E           G#m         A               Am
al vesar siento yo que te entrego toda el alma

            E     G#m-Gm-F#m-B7           E     E7
y esque es tuya y tuya   sera  hasta el final

    A      Am               E          G#m    F#m
tu hermosura  es cdomo una rosa que mu hace sentir

   F#7         B7      C+
locamente de pasion mi bien


        E        G#m             A           Am
vualve a mi dulce bien que bien sabes que te espero

      E    G#m-Gm-F#m  B7       E     G#m-Gm-F#m-B7       
y yo nunca nunca jamas   te lovidare


SOLO

e-------0-------------------------------------------------
b-----0----2-0---------------2h3h2--0---------------------
g-1-2----------2-1-------2-4----------2-1-2-2-4-2-4-2-4-2-
d------------------4-2-4----------------------------------
a---------------------------------------------------------
e---------------------------------------------------------

e---------------------0--0--------------------------------
b-1-1--3-1-3-1--3--1--------0-----------------------------
g-----------------------------1---------------------------
d---------------------------------------------------------
a---------------------------------------------------------
e---------------------------------------------------------

E7


    A      Am               E          G#m    F#m
tu hermosura  es cdomo una rosa que mu hace sentir

   F#7         B7      C+
locamente de pasion mi bien

  E               G#m            A             Am
vuelve a mi dulce amor que bien sabes que te espero

       E      G#m- Gm-F#m-B7
y yo siempre siempre a ti   te amare 


   B7       E          C        E     E7
siempre te amareeeeeeeeeeeeeeeeeeeeee
Aviso: Este fichero es trabajo propio de su transcriptor y representa su interpretación personal de la canción. El material contenido en esta página es para exclusivo uso privado, por lo que se prohibe su reproducción o retransmisión, así como su uso para fines comerciales.
comentario del colaborador: ESTA BIEN CHIDA Y ESTE ACORDE C+ ES DO AUMENTADO

Califica esta canción


Comentarios en Facebook


Más canciones de Los Reno: