Enviado por: shadow070894
Agrandar Letra
Reducir Letra
Imprimir






Linkin Park, What I´ve Done

Intro

G|--------------------------------|--------------------------------|
D|--------------------------------|--------------------------------|
A|--------1---------------3-------|--------1---------------3-------|
E|3---------------1---------------|3---------------1---------------|

Coro 

G|--------------------------------|--------------------------------|----------------|
D|--------------------------------|--------------------------------|----------------|
A|--------11111111--------33333333|--------11111111--------33333333|----------------|
E|33333333--------11111111--------|33333333--------11111111--------|3---------------|

Verso

G|--------------------------------|--------------------------------|-------------------------------|
D|--------------------------------|--------------------------------|-------------------------------|
A|--------1-----------------------|--------1-----------------------|6------------------------------| 
E|3---------------1---------------|3---------------1---------------|----------------3--------------|

Coro

G|--------------------------------|--------------------------------|
D|--------------------------------|--------------------------------|
A|--------11111111--------33333333|--------11111111--------33333333|
E|33333333--------11111111--------|33333333--------11111111--------|

Verso

G|--------------------------------|--------------------------------|-------------------------------|
D|--------------------------------|--------------------------------|-------------------------------|
A|--------1-----------------------|--------1-----------------------|6------------------------------| 
E|3---------------1---------------|3---------------1---------------|----------------3--------------|

Coro

G|--------------------------------|--------------------------------|--------|
D|--------------------------------|--------------------------------|--------|
A|--------11111111--------33333333|--------11111111--------33333333|66666666|
E|33333333--------11111111--------|33333333--------11111111--------|--------|

Puente

G|--------------------------------|----------------------------------------|-----------------------|
D|--------------------------------|----------------------------------------|-----------------------|
A|--------11111111--------33333333|--------11111111--------3333555566668888|-----------------------|
E|33333333--------11111111--------|33333333--------11111111----------------|3----------------------|

Coro

G|--------------------------------|--------------------------------|
D|--------------------------------|--------------------------------|
A|--------11111111--------33333333|--------11111111--------33333333|
E|33333333--------11111111--------|33333333--------11111111--------|

G|--------------------------------|--------------------------------|
D|--------------------------------|--------------------------------|
A|--------11111111--------33333333|--------11111111--------33333333|
E|33333333--------11111111--------|33333333--------11111111--------|

Terminando 
G|---------------|
D|---------------|
A|---------------|
E|3--------------|
Aviso: Este fichero es trabajo propio de su transcriptor y representa su interpretación personal de la canción. El material contenido en esta página es para exclusivo uso privado, por lo que se prohibe su reproducción o retransmisión, así como su uso para fines comerciales.

Califica esta canción


Comentarios en Facebook