Enviado por: x-boyy
Agrandar Letra
Reducir Letra
Imprimir

Acordes:
½ tono
| +0 |
½ tono
||
Volver


Espinoza Paz, El Próximo Viernes

INTRO
          C                                  F
E |---------------------------------------------------|
B |-------1h3-1----1h3-1-----1h3-3-----1-3---2--------|
G |-----0--------0---------0-----------------3--------|
D |---2--------2---------2----------------------------|
A |-3-------------------------------------------------|
E |---------------------------------------------------|

                             Dm                  F          G
E |-------------------------1-0-----------1-0----------------|
B |-----1h3-1-----1h3-1---3-----3-3-----3-----3-3--1--1-3s5-3|
G |---2---------2-------2-----------2-2-----------2--2-------|
D |-3---------3----------------------------------------------|
A |----------------------------------------------------------|
E |----------------------------------------------------------|



[Esto es hablado mientras tocas el intro]

C
Hola bebe, Lamento mucho lo sucedido,
F
 Pero te amo, Mucho te amo,
Dm                        F      G
Bebe no andes con nadie, porfa.


      C                 Am
Hola Bebe, ¿Cómo has estado?
             F
Tal vez no sepas, quien habla
      Dm                G
O tal vez lo hayas olvidado.

  F                  C
Bebe, yo no soy tan malo
  F                 C
Bebe, sabes que te amo
   Dm
Salgamos el viernes
     F               G-G7   
Y hablemos de frente.

            C
Igual y le robo un beso a tu boca
   C7         F
Y dejas de creer que soy poca cosa
              Dm                    F
Igual y te explico, igual y no entiendes
                G-G7   
Que te necesito.

              C
Igual y te abrazo, con mucha ternura
       C7       F
Y hago desaparecer, toditas tus dudas

              Dm
Igual y he fallado, pero dime
    F                      G-G7   
¿Quién no se ha equivocado.

             C
Igual y de plano, ya no quieres verme
      C7       F
Pero déjame besar de nuevo tu frente
            Dm                F   
Igual y te pido volverte a mirar
                   G-G7   
El próximo viernes.

        C                                  F
E |---------------------------------------------------|
B |-------1h3-1----1h3-1-----1h3-3-----1-3---2--------|
G |-----0--------0---------0-----------------3--------|
D |---2--------2---------2----------------------------|
A |-3-------------------------------------------------|
E |---------------------------------------------------|

                             Dm                  F          G
E |-------------------------1-0-----------1-0----------------|
B |-----1h3-1-----1h3-1---3-----3-3-----3-----3-3--1--1-3s5-3|
G |---2---------2-------2-----------2-2-----------2--2-------|
D |-3---------3----------------------------------------------|
A |----------------------------------------------------------|
E |----------------------------------------------------------|


            C
Igual y te robo un beso...
Aviso: Este fichero es trabajo propio de su transcriptor y representa su interpretación personal de la canción. El material contenido en esta página es para exclusivo uso privado, por lo que se prohibe su reproducción o retransmisión, así como su uso para fines comerciales.

Califica esta canción


Comentarios en Facebook