Acordes y tablaturas para guitarra

Acordes y Tablaturas
Usuario: Password:

Buscar:
Acordes y Tablaturas >> Letra E >> Acordes de El Perro >> Llego El Lunes
Acordes de Llego El Lunes, El Perro

Llego El Lunes

El Perro






am.c.e.f.g.
Am 
 Con tus besos tú me enamoraste
F 
 Con tus caricias falsas me engañaste
G  
 Como imaginarme yo..
          C             E  
 Que tú jugabas con mi amor

Am 
 Con tus besos tú me enamoraste
F 
 Con tus caricias falsas me engañaste
G  
 Como imaginarme yo..
          C             E  
 Que tú jugabas con mi amor

   Am 
Y voy para tu casa y tú nunca estas
    F 
Te llamo por teléfono y no me contestas
      G  
Ya no se qué pensar
            C 
Si tú me quieres dejar
E   E   E
No, no, no

        Am 
Llego el lunes, llego el martes
           F 
Llego el miércoles noche de devorarte
         G  
Y jueves, viernes, sábado así le pido..
         C                     E  
Que me deje solo para mí el domingo 

        Am 
Llego el lunes, llego el martes
           F 
Llego el miércoles noche de devorarte
         G  
Y jueves, viernes, sábado así le pido..
         C                     E  
Que me deje solo para mí el domingo 

Arpegio de Am - F - G - C - E  x2
[Si lo desean pueden usar este]

e||-------------------------------------------------------------------------------0---------0-
b||-------1----1----1-----1-------1----1----1-----1-------0----0----0-----0----1--1------0--0-
g||-----2----2----2---2---------2----2----2---2---------0----0----0---0--------0--0------1--1-
d||---2----2----2-------2-----3----3----3-------3-----0----0----0-------0------2--------2-----
a||-0-----------------------3-----------------------------------------------3--------2--------
E||-------------------------------------------------3-----------------------------------------

Am 
 Con tus besos tú me enamoraste
F 
 Con tus caricias falsas me engañaste
G  
 Como imaginarme yo..
          C             E  
 Que tú jugabas con mi amor

Am 
 Con tus besos tú me enamoraste
F 
 Con tus caricias falsas me engañaste
G  
 Como imaginarme yo..
          C             E  
 Que tú jugabas con mi amor

   Am 
Y voy para tu casa y tú nunca estas
    F 
Te llamo por teléfono y no me contestas
      G  
Ya no se qué pensar
            C 
Si tú me quieres dejar
E   E   E
No, no, no

   Am 
Y voy para tu casa y tú nunca estas
    F 
Te llamo por teléfono y no me contestas
      G  
Ya no se qué pensar
            C 
Si tú me quieres dejar

   Am 
Y voy para tu casa y tú nunca estas
    F 
Te llamo por teléfono y no me contestas
      G  
Ya no se qué pensar
            C 
Si tú me quieres dejar
E   E   E        Am
No, no, no

FIN
[si lo desean pueden usar este arpegio]
Arpegio de Am - F - G - C - E  y fin con Am

e||-------------------------------------------------------------------------------0---------0--0-
b||-------1----1----1-----1-------1----1----1-----1-------0----0----0-----0----1--1------0--0--1-
g||-----2----2----2---2---------2----2----2---2---------0----0----0---0--------0--0------1--1--2-
d||---2----2----2-------2-----3----3----3-------3-----0----0----0-------0------2--------2------2-
a||-0-----------------------3-----------------------------------------------3--------2---------0-
E||-------------------------------------------------3--------------------------------------------

Que te parecio? Calificalo con estrellas!!

Rating: 8.4/10 (83 votos)

Este fichero es trabajo propio de su transcriptor y representa su interpretación personal de la canción. El material contenido en esta página es para exclusivo uso privado, por lo que se prohibe su reproducción o retransmisión, así como su uso para fines comerciales.


Comentario de KuLuMbO
Agus este tema lo subi por que se te gusta.. TE AMO !!! 05/12/08
Deja tus comentarios:
Letras de canciones | Musica Independiente