Acordes y tablaturas para guitarra

Acordes y Tablaturas
Usuario: Password:

Buscar:
Acordes y Tablaturas >> Letra B >> Acordes de Bullet For My Valentine >> Tears Don\'t Fall
Tablatura de Tears Don\'t Fall, Bullet For My Valentine

Tears Don\'t Fall

Bullet For My Valentine






e-/-----------------------------------------------------
B-/-------3?-3-3---3---3---4-4------1---1-1-1-----------
G-/------------------------------------------3-5-7-8-8-8
D-/---5-5--------5---5---5------1-1---------------------
A-/-----------------------------------------------------
E-/-----------------------------------------------------

                                                                                                                     (x3)                


e-/ --------------------------------
B-/-----1-1-1-1--------------------
G-/-------------3/5----------------
D-/--1-1---------------------------
A-/--------------------------------
E-/ -------------------------------

Let?s Go

e-/------------------------------------
B-/----------4-4-4-4-3-3-3-3-4-4-4-4---
G-/------------------------------------
D-/--3-3-3-3---------------------------
A-/--1-1-1-1---------------------------
E-/------------------------------------

e-/------------------------------------
B-/----------2-2-2-2-1-1-1-1-0-0-0-0---
G-/------------------------------------
D-/--2-2-2-2---------------------------
A-/--0-0-0-0---------------------------
E-/------------------------------------

e-/------------------------------------
B-/----------4-4-4-4-3-3-3-3-4-4-4-4---
G-/------------------------------------
D-/--3-3-3-3---------------------------
A-/--1-1-1-1---------------------------
E-/------------------------------------

e-/------------------------------------
B-/----------2-2-2-2-3-3-3-3-0-0-0-0---
G-/------------------------------------
D-/--2-2-2-2---------------------------
A-/--0-0-0-0---------------------------
E-/------------------------------------
                                                                                  (x2)

e-/------------------------------------
B-/------------------------------------
G-/------------------------------------
D-/--5-5-5-5-5-5-5---------------------
A-/------------------------------------
E-/------------------------------------
 
e-/---------------------------------------------------
B-/-------3?-3-3---3---3---4-4------1---1-1-1-----------
G-/------------------------------------------3-5-7-8-8-8
D-/---5-5--------5---5---5------1-1---------------------
A-/-----------------------------------------------------
E-/-----------------------------------------------------

e-/----------------------------------------------------
B-/-------3?-3-3---3---3---4-4------1---1-1-1-----------
G-/------------------------------------------3-5-7-8-8-8
D-/---5-5--------5---5---5------1-1---------------------
A-/-----------------------------------------------------
E-/-----------------------------------------------------


e-/-------------------------------------------8---------
B-/-------3?-3-3---3---3---4-4------1---1-1-1---7-------
G-/-----------------------------------------------------
D-/---5-5--------5---5---5------1-1---------------------
A-/-----------------------------------------------------
E-/----------------------------------------------------
                                                   (x2)

e-/----------------]------------------
B-/------6---------]------6-----------
G-/--5-7---7-5-7---]?-5-7---7-5-6-6/8-
D-/--------------8-]------------------
A-/----------------]------------------
  E-/---------------] ------------------

 
e-/----------------
B-/------6---------
G-/--5-7---7-5-7---
D-/--------------8-
A-/----------------
E-/---------------

e-/------------------------------------
B-/----------4-4-4-4-3-3-3-3-4-4-4-4---
G-/------------------------------------
D-/--3-3-3-3---------------------------
A-/--1-1-1-1---------------------------
E-/------------------------------------

e-/------------------------------------
B-/----------2-2-2-2-1-1-1-1-0-0-0-0---
G-/------------------------------------
D-/--2-2-2-2---------------------------
A-/--0-0-0-0---------------------------
E-/------------------------------------

e-/------------------------------------
B-/----------4-4-4-4-3-3-3-3-4-4-4-4---
G-/------------------------------------
D-/--3-3-3-3---------------------------
A-/--1-1-1-1---------------------------
E-/------------------------------------

e-/------------------------------------
B-/----------2-2-2-2-3-3-3-3-0-0-0-0---
G-/------------------------------------
D-/--2-2-2-2---------------------------
A-/--0-0-0-0---------------------------
E-/------------------------------------
                                                                                  (x2)
e-/-------------------------
B-/-------------------------
G-/-------------------------
D-/---5-5-5-5-5-5-5-5-------
A-/-------------------------
E-/-------------------------

 e-/----------------------------------------------------
B-/-------3?-3-3---3---3---4-4------1---1-1-1-----------
G-/------------------------------------------3-5-7-8-8-8
D-/---5-5--------5---5---5------1-1---------------------
A-/-----------------------------------------------------
E-/-----------------------------------------------------


e-/-------------------------------------------8---------
B-/-------3?-3-3---3---3---4-4------1---1-1-1---7-------
G-/-----------------------------------------------------
D-/---5-5--------5---5---5------1-1---------------------
A-/-----------------------------------------------------
 E-/----------------------------------------------------
                      (x2)
   
e-/----------------]------------------
B-/------6---------]------6-----------
G-/--5-7---7-5-7---]?-5-7---7-5-6-6/8-
D-/--------------8-]------------------
A-/----------------]------------------
  E-/----------------]------------------
                     (x2)
 
  
e-/------------------------------------
B-/----------4-4-4-4-3-3-3-3-4-4-4-4---
G-/------------------------------------
D-/--3-3-3-3---------------------------
A-/--1-1-1-1---------------------------
E-/------------------------------------

e-/------------------------------------
B-/----------2-2-2-2-1-1-1-1-0-0-0-0---
G-/------------------------------------
D-/--2-2-2-2---------------------------
A-/--0-0-0-0---------------------------
E-/------------------------------------

e-/------------------------------------
B-/----------4-4-4-4-3-3-3-3-4-4-4-4---
G-/------------------------------------
D-/--3-3-3-3---------------------------
A-/--1-1-1-1---------------------------
E-/------------------------------------

e-/------------------------------------
B-/----------2-2-2-2-3-3-3-3-0-0-0-0---
G-/------------------------------------
D-/--2-2-2-2---------------------------
A-/--0-0-0-0---------------------------
E-/------------------------------------
                                                                                  (x2)

e-/-----------------
B-/-----------------
G-/-----------------
D-/-----------------
A-/--5?-5-5-5-5-----
E-/--3?-3-3-3-3-----
                             (x13)veses

e-/ -----------------
B-/-----------------
G-/-----------------
D-/--4-2-4-7-6-4----
A-/--2-0-2-5-4-2----
E-/-----------------

------------------
--------------4---
--5/6-5-4-5-6---4-
------------------
------------------
------------------

------------------
------------------
------------------
--6/7-6-5-4-3-4-2-
------------------
------------------

------------------
--------------4---
--5/6-5-4-5-6---4-
------------------
------------------
------------------
e-/ -----------------
B-/-----------------
G-/-----------------
D-/--4-2-4-7-6-4----
A-/--2-0-2-5-4-2----
E-/-----------------

e-/-----------------
B-/-----------------
G-/-----------------
D-/-----------------
A-/--5?5-5-5-5------
E-/--3-3-3-3-3------
------------------
--------------4---
--5/6-5-4-5-6---4-
------------------
------------------
------------------

------------------
------------------
------------------
--6/7-6-5-4-3-4-2-
------------------
------------------

------------------
--------------4---
--5/6-5-4-5-6---4-
------------------
------------------
------------------
e-/ -----------------
B-/-----------------
G-/-----------------
D-/--4-2-4-7-6-4----
A-/--2-0-2-5-4-2----
E-/-----------------
Oigan si alguien se sabe la tab de WAKING THE DEMON
enviamela a mi msn:[email protected]


e-/ -------- [--------------------
B-/---------[---------------------
G-/---------[--7-7-6-5---7-7-6-5--
D-/---------[---------------------
A-/--4-5----[---------------------
E-/--2-3----[---------------------(X2)

e-/ ---------------------------
B-/-----------------------------
G-/-----------------------------
D-/-----------------------------
A-/--4---3---4---3---5---6---7--
E-/--2---1---2---1---3---4---5--
 
e-/-----------------
B-/-----------------
G-/-----------------
D-/-----------------
A-/--5?5-5-5-5------
E-/--3-3-3-3-3------(X6)
e-/-----------------
B-/-----------------
G-/-----------------
D-/-----------------
A-/--5--5?-5--------
E-/--3--3?-3---------

Que te parecio? Calificalo con estrellas!!

Rating: 7.3/10 (319 votos)

Este fichero es trabajo propio de su transcriptor y representa su interpretación personal de la canción. El material contenido en esta página es para exclusivo uso privado, por lo que se prohibe su reproducción o retransmisión, así como su uso para fines comerciales.


Comentario de rockcool
luego pongo el solo
Deja tus comentarios:
Letras de canciones | Musica Independiente