Enviado por:
Pancho_01

Joaquin Sabina, Calle Melancolia

-------------10-8-7-------------10--8--7--------------------------
-----7-8-10---------10-8-8/10------------10-8-8/10-10h-6----------
--7---------------------------7--------------------------6--------
------------------------------------------------------------------
------------------------------------------------------------------
------------------------------------------------------------------


------------------------------------------------------------------
-------------7--------------------------------------------------
-9-9-7-5-5/7---9-9-7-5-5/7-----------------------------------------
------------------------------------------------------------------
------------------------------------------------------------------
------------------------------------------------------------------
Aviso: Este fichero es trabajo propio de su transcriptor y representa su interpretación personal de la canción. El material contenido en esta página es para exclusivo uso privado, por lo que se prohibe su reproducción o retransmisión, así como su uso para fines comerciales.

Califica esta canción


Comentarios en Facebook