Acordes y tablaturas para guitarra

Acordes y Tablaturas
Usuario: Password:

Buscar:
Acordes y Tablaturas >> Letra P >> Acordes de Panda >> Si Supieras
Tablatura de Si Supieras, Panda

Si Supieras

Panda






Si supieras (panda)
Intro: 3
Guitarra 1

|---9------9h8----8---11-8----9-8---8-|
|------9------------------------------|
|-8------8------8---8------8------8---|
|-------------------------------------|
|-------------------------------------|
|-------------------------------------|

Después entran los demás instrumentos

Guitarra 1 o principal (x2) Riff 1
|-------------------------------------------------|
|-------------------------------------------------|
|-------------------------------------------------|
|-666-8-8-666-8-8-8/10-10-10-8-10-10/11-11-10-8-6-|
|-------------------------------------------------|
|-------------------------------------------------|

Enseguida este (x2)   Riff 2
|----------------------------------------------------
|-999-11-11-999-11-11-11/13-13-13-11-13-13/14-13-11-9
|----------------------------------------------------
|----------------------------------------------------
|----------------------------------------------------

Guitarra2 o acompañante (generalmente la del vocal) 
|--------------------------------------------|
|--------------------------------------------|
|-----------------------6-6-6-6-6--8-8-8-8-8-|
|-6-6-6-6-6--8-8-8-8-8--6-6-6-6-6--8-8-8-8-8-|
|-6-6-6-6-6--8-8-8-8-8--4-4-4-4-4--6-6-6-6-6-|
|-4-4-4-4-4--6-6-6-6-6-----------------------|


Después siguen estos acordes traten de rasguear bien
Las cuerdas y principalmente las de abajo

Guitarra 2 
  C#   G#   D2  A#2
|-4----6----4----6-|
|-4----6----4----6-|
|-5----7----6----8-|
|-6----8----6----8-|
|-6----8----4----6-|
|-4----6----4----6-|


Aquí entra la guitarra 1  0:51
|----------------------------------------|
|----------------------------------------|
|----------------------------------------|
|----6----6----6----6----8----8----8-6h8-|
|----------------------------------------|
|-44---44---44---44---66---66---66-------|

                                    1 Vez      2 Vez
|----------------------------------|--------|------------------|
|----------------------------------|--------|------------------|
|----6----6----6----6----8----8----|-8h10p8-|-8-8-8-8/10-10/12-|
|----------------------------------|--------|------------------|
|-44---44---44---44---66---66---66-|--------/-6-6-6-6/8-8/10---|
|----------------------------------|--------------------------|

Coro: Ambas guitarras
Y siempre he sido, siempre he sido aburrido
|---------------|
|---------------|
|-----8-------6-|
|-6---8---8---6-|
|-6---6---8---4-|
|-4---6---6---4-|


Empieza de nuevo el riff 2 de la guitarra 1

mientras la guitarra 2 esta tocando los acordes
C#   G#   D2  A#2


Esto se toca en el minuto 1:43 es un arreglo

Guitarra 1
Si supieras mis secretos, si supieras
|----------------------------------------|
|----------------------------------------|
|----------------------------------------|
|-6-66-6--8-88-8--10-8-4-----------------|
|-6-66-6--8-88-8--10-8-4-----------------|
|-4-44-4--6-66-6--8--6-6-----------------|


Aqui entra la guitarra 1 de nuevo después del arreglo
 1:56
|----------------------------------------|
|----------------------------------------|
|----------------------------------------|
|----6----6----6----6----8----8----8-6h8-|
|----------------------------------------|
|-44---44---44---44---66---66---66-------|

                                    1 Vez      2 Vez
|----------------------------------|--------|------------------|
|----------------------------------|--------|------------------|
|----6----6----6----6----8----8----|-8h10p8-|-8-8-8-8/10-10/12-|
|----------------------------------|--------|------------------|
|-44---44---44---44---66---66---66-|--------/-6-6-6-6/8-8/10---|
|----------------------------------|--------------------------|

Coro: ambas guitarras

|---------------|
|---------------|
|-----8-------6-|
|-6---8---8---6-|
|-6---6---8---4-|
|-4---6---6---4-|


Aqui va el riff de la guitarra 1 con distorsion
va despues  del segundo coro y al final de la rola

|------------------------------------------|
|-8h9----9-8h9----9-8h9----9/13-11-9-8--9~-|
|-8---8----8---8----8---8---------------8~-|
|------------------------------------------|
|------------------------------------------|
|------------------------------------------|


Aqui se tranquiliza la rola y va solo la bateria 
y el bajo.

El segundo arreglo guitarra 1

3:20
Y siempre he sido        siempre he sido aburrido

|-------------           -----------------------------|
|-------------           -----------------------------|
|-------------           -----------------------------|
|---6--6------           --8--8-----------------------|
|---6--6------           --8--8------------------12/4-|
|---4--4------           --6--6------------------12/4-|

Coro y despues termina con esto

Guitarra 2 con los acordes del coro
y la guitarra 1 termina con
|------------------------------------------|
|-8h9----9-8h9----9-8h9----9/13-11-9-8--8~-|
|-8---8----8---8----8---8---------------9~-|
|------------------------------------------|
|------------------------------------------|
|------------------------------------------|

ezta kancion ezta moe buena ii mui facil bno noz vemoz biie se kuidan biie XD

Que te parecio? Calificalo con estrellas!!

Rating: 4.8/10 (81 votos)

Este fichero es trabajo propio de su transcriptor y representa su interpretación personal de la canción. El material contenido en esta página es para exclusivo uso privado, por lo que se prohibe su reproducción o retransmisión, así como su uso para fines comerciales.


Deja tus comentarios:

Letras de Panda
Letras de canciones | Musica Independiente