Acordes y tablaturas para guitarra

Acordes y Tablaturas
Usuario: Password:

Buscar:
Acordes y Tablaturas >> Letra L >> Acordes de La Rondalla De Saltillo >> Wendoline
Tablatura de Wendoline, La Rondalla De Saltillo

Wendoline

La Rondalla De Saltillo






INTRO
e)-----------------5-5/6--6--5-----------------------------¢x-5--5--5---¢x
B)-----5-5/6--8---------------8--8-6-5---6-5-6--------¢x---6--5--3-¢x
G)---7------------------------------------------------7-6-7¢x-------------¢x
D)------------------------------------------------------------¢x-------------¢x

INTERMEDIO
e)----------------5-5/6--6-5-6--565--------¢x
B)----5-5/6--8------------------------8-6-5-¢x
G)--7-------------------------------------------¢x
D)-----------------------------------------------¢x

e)---------6/8-6---5--5-----------------¢x
B)-------5----------------8-6-56565--¢x
G)--5-7--------------------------------7-¢x
D)-----------------------------------------¢x

e)------------------------------------------¢x--5-5/6-5-------¢x-5--5--5--¢x
B)----------5-6-6/8-6-5--5--5--5-----¢x------------8-6--¢x---6--5--3-¢x
G)---4-6-7-------------------7--7--7-6¢x-----------------7-¢x------------¢x
D)-7---------------------------------------¢x-------------------¢x------------¢x

Que te parecio? Calificalo con estrellas!!

Rating: 7.0/10 (191 votos)

Este fichero es trabajo propio de su transcriptor y representa su interpretación personal de la canción. El material contenido en esta página es para exclusivo uso privado, por lo que se prohibe su reproducción o retransmisión, así como su uso para fines comerciales.


Deja tus comentarios:

Letras de La Rondalla De Saltillo
Letras de canciones | Musica Independiente