Enviado por: shout
Agrandar Letra
Reducir Letra
Imprimir


Otras Versiones de All Out Of Love:




Air Supply, All Out Of Love

By:  Air Supply
(Graham Russell, Clive Davis)

Tuning: E-A-D-G-B-E


Barre Chords: C / G / F then F / G / C

Intro:

  C               G                 F              F        G

e-------------------------3-------|--------1-------------------------|
B---------5-----------------3-----|----------1-----------------------|
G-----5-----5-----------------4---|------------2--------2---------4--|
D---5---------5-------5-----------|-----3-------------3--------5-----|
A-3-----------------5-------------|---3-------------3--------5-------|
E-----------------3---------------|-1-------------1--------3---------|


´  C              G                 F               F           G
E--------0---------------3-----------------1---------------1---------3------|
B----------1---------------3-----------------1---------------1---------3----|
G------0-----0--------0-------0---------2-------2-------2---------0---------|
D----2--------------0-----------------3--------------3----------0-----------|
A--3--------------2-----------------0---------------------------------------|
E---------------------------------------------------------------------------|


Aviso: Este fichero es trabajo propio de su transcriptor y representa su interpretación personal de la canción. El material contenido en esta página es para exclusivo uso privado, por lo que se prohibe su reproducción o retransmisión, así como su uso para fines comerciales.

Califica esta canción


Comentarios en Facebook