Acordes y tablaturas para guitarra

Acordes y Tablaturas
Usuario: Password:

Buscar:
Acordes y Tablaturas >> Letra P >> Acordes de Pink Floyd >> YOUNG LUST
Tablatura de YOUNG LUST, Pink Floyd

YOUNG LUST

Pink Floyd






(E5)
I am just a new boy,
--------------------------------
------------------3------------
------------2/4----------------
--------------------------------
--------------------------------
-0----0------------------------

A
     a
--------------------------------
--------------------------------
--------------x---2---2--------
--------------x---2---2--------
--------------x---0---0--------
--------------------------------

E5
stranger in this town
--------------------------------
------------------3-------------
-----------2/4------------------
--2---2-------------------------
--2---2-------------------------
--0---0-------------------------

--------------------------------
--------------------------------
-----------------0--2----2-----
--------------------------------
--------------------------------
--------------------------------

Who's gonna show this stranger around
--------------------------------
------------------3------------
------------2/4----------------
--------------------------------
--------------------------------
-0----0------------------------

--------------------------------
-------------------------0------
--------------------------------
--------------------------------
------------------------------3/
------------------------------1/

Pre-chorus:
G5
-------------------------------------------------
-------------------------------------------------
-------------------------------------------------
-------------------------------------------------
--5------(5)--7------(7)-5--5--5--5--7--------7
--3----3--3--3----3--3--3--3--3--3--3----3---

-------------------------------------------------
-------------------------------------------------
-------------------------------------------------
-------------------------------------------------
--5----x--x--7----x--x--5----x--x--7/---x--x\
--3----x--x--3----x--x--3----x--x-(3)----x--x\

(E5)
--------------------------------
------------------3------------
------------2/4----------------
--------------------------------
--------------------------------
------0------------------------

-------------------------------------------------
-------------------------------------------------
-----------------------------x--x--x------------
-----------------------------x--x--x------------
-----------------------------x--x--x------------
-----------------------------x--x--x--10\------

Chorus:
Am
Ooh,
-------------------------------------------------
-------------------------------------------------
--5-------------------------------5-------------
--7-------------------------------7-------------
--7-------------------------------7-------------
--5-------------------------------5--------5----

  I need a dirty woman
-------------------------------------------------
-------------------------------------------------
--5------------------5\-------------------------
--7------------------7\-------------------------
--7------------------7\-------------------------
--5------------------5\-------------------------

G
-------------------------------------------------
-------------------------------------------------
--4------------------4--------------------------
--5------------------5--------------------------
--5------------------5--------------------------
--3------------------3------------------3-------

-------------------------------------------------
-------------------------------------------------
--4-----------------(4)---4------(5)---5--------
--5------------------5----5-------6---6--------
--5------------------5----5-------6---6--------
--3------------------3----3-------4---4--------

Am
Ooh,
-------------------------------------------------
-------------------------------------------------
--5----------------------------------------5----
--7----------------------------------------7----
--7----------------------------------------7----
--5----------------------------------------5----

  I need a dirty girl
-------------------------------------------------
-------------------------------------------------
--5------------------5--5-----------------------
--7------------------7--7-----------------------
--7------------------7--7-----------------------
--5-------------------------5\------------------

(E5)
-------------------------------------------------
-------------------------------------------------
-------------------------------------------------
-------------------------------------------------
-------------------------------------------------
----0--------------------------------------------

--------------------------------------------------
----------------------12------------15-----------
----------------------12-------12----------------
--------------------------------12---------------
-----------12/-----------------------------------
-------------------------------------------------


Que te parecio? Calificalo con estrellas!!

Rating: 4.8/10 (23 votos)

Este fichero es trabajo propio de su transcriptor y representa su interpretación personal de la canción. El material contenido en esta página es para exclusivo uso privado, por lo que se prohibe su reproducción o retransmisión, así como su uso para fines comerciales.


Deja tus comentarios:

Letras de Pink Floyd
Letras de canciones | Musica Independiente