Enviado por: solounpoco
Agrandar Letra
Reducir Letra
Imprimir


Otras Versiones de Another one bites the dust:




Queen, Another one bites the dust

bueno como no estaba la pongo yo, espero q les guste, ;)

------------------------------------
------------------------------------
------------------------------------
-5-3-0-0-0-(0-0-0-3-0-5)------------

eso es toda la cancion, desp en el estribillo antes q diga another one bites the dust. hace esto,

----------------/-------------------
------------5---/-------------------
-3-3--3-4-5-----/-3-3--3-4-5--------
--------------3-/------------3------

tiene q escuchar el ritmo en la cancion..
y desp en una parte cambia y hace esto..

------------------------------------
------------------------------------
------------------------------------
-2---7-6-5-5-5-2--7¨-2¨-------------

bueno espero q les gustee..

Los ¨ es q tenes q hacer vibrar la cuerda.

chauuu
Aviso: Este fichero es trabajo propio de su transcriptor y representa su interpretación personal de la canción. El material contenido en esta página es para exclusivo uso privado, por lo que se prohibe su reproducción o retransmisión, así como su uso para fines comerciales.
comentario del colaborador: oidoo

Califica esta canción


Comentarios en Facebook