Acordes y tablaturas para guitarra

Acordes y Tablaturas
Usuario: Password:

Buscar:
Acordes y Tablaturas >> Letra N >> Acordes de NIRVANA >> Lithium
Tablatura de Lithium, NIRVANA

Lithium

NIRVANA

Transcriptor:
ROCKERO Y METALERO
Letras de Canciones
Acordes para Guitarra





 Intro (Em, G#, C#, A, C, D, H, D)

e-----------------------------------------------]
h-----------------------------------------------]
g--------------------------6--------------------]
D--------------------------6--------------7-----]
A-------------6----0---4-------0-------7------0-]
E--0--0---4-------------------------5-----------]



e---------------------------------------------------]
h---------------------------------------------------]
g-----5----------7---------------4------------------]
D-----5----------7---------------4------------------]
A--3-----3>5--5-----5-----2---2-----2>5-5-5--0------]
E-------------------------------------------------0-]




YEEEH YEEEEAAH YEEEEEAH part: 

   Em   G#   C#    A    C    D    H
e-----------------------------------------------]
h-----------------------------------------------]
g------------6----------5----7----4----7--------]
D--2----6----6-----4----5----7----4----7--------]
A--2----6----4-----4----3----5----2----5--------]
E-------4----------5----------------------------]


I LIKE IT, I'M NOT GONNA CRACK..

e--------------------   ---------------------------]
h--------------------   ---------------------------]
g--------5-----------OR --2---5--------------------]
D---7----5-----------   --2---5--------------------]
A---7----3-----------   --0---3--------------------]
E---5----------------   ---------------------------]



CRAAAAAAAAAAAAACK..
(Chords: C, H, A5, Em)

   C    H    A5   Em
e-----------------------------------------------]
h-----------------------------------------------]
g--7----4----2----------------------------------]
D--7----4----2----2-----------------------------]
A--5----2----0----2-----------------------------]
E-----------------0-----------------------------]


Que te parecio? Calificalo con estrellas!!

Rating: 6.9/10 (333 votos)

Este fichero es trabajo propio de su transcriptor y representa su interpretación personal de la canción. El material contenido en esta página es para exclusivo uso privado, por lo que se prohibe su reproducción o retransmisión, así como su uso para fines comerciales.


Deja tus comentarios:
Letras de canciones | Musica Independiente