Enviado por: xxblackxpinkxx
Agrandar Letra
Reducir Letra
Imprimir


Otras Versiones de Post-Crucifixión:

Pescado Rabioso, Post-Crucifixión

      "Post Crucifixión", Pescado Rabioso (de Luis Alberto Spinetta)
_____________________________________________
·Por Sebastián Ara.
·Buenos Aires, Argentina, 2009
·Email MSN por cualquier duda: [email protected]
·Sí, sacado de oído.
______________________________________________
*Afinación: EADG
*Album: "Desatormentándonos"
*Dificultad: Intermedia/Avanzada (no es difícil memorizarla, pero para 
tocarlo fluída y prolijamente es un tanto complicado)

Intro/Riff Principal:
G|-------------5-------5---------------------
D|-----------5---7-------7-5h7p5---5---------
A|-----5-6-7---------------------7---5h7p5---
E|-5-8-------------------------------------8-
[repite varias veces]

Finaliza con esto:
G|---------------
D|---------------
A|---------------
E|5---3-5---3-5--

Versos:
G|----------------------------------
D|----------------------------------
A|---------------------------2h3--5-
E|-5--5-5--5-5--5-5-5--3---3--------
[lo hace 3 veces en total]

"Abrazame, Madre del Dolor, nunca..."

Break:
                  (lo hace suave, casi no se escucha)
G|----------------(5-----------------------------------------
D|------------------5----------------------------------------
A|-5--5--5--5--3-3---3)-------(3)/8-8--8-8h10-10-10--(10)\\\-
E|-----------------------------------------------------------

"..Abrazame, que la vida yo ya estoy..."


Y así toda la canción...
Aviso: Este fichero es trabajo propio de su transcriptor y representa su interpretación personal de la canción. El material contenido en esta página es para exclusivo uso privado, por lo que se prohibe su reproducción o retransmisión, así como su uso para fines comerciales.

Califica esta canción


Comentarios en Facebook