Acordes y tablaturas para guitarra

Acordes y Tablaturas
Usuario: Password:

Buscar:
Acordes y Tablaturas >> Letra r >> Acordes de red hot chili peppers >> Venice Queen
Tablatura de Venice Queen, red hot chili peppers

Venice Queen

Red hot chili peppers






Venice Queen




Intro

E|---0----0--------0----0----------------|
B|-0--------0----0--------0--------------|
G|-----16-----16-----16------------------|
D|----------------------------17-16------|     x 3
A|---------------------------------------|
E|---------------------------------------|


E|---0----0--------0----0--------0-------|
B|-0--------0----0--------0----0---------|
G|-----16-----16-----16-----16-----16---|
D|---------------------------------------|
A|---------------------------------------|
E|---------------------------------------|


E|--------2--2------2--2-2-2---------3--3------3--3-3------|
B|----3-0-0--0-3--0-0--0-0-0----3--0-0--0-3--0-0--0-0-0----|
G|----0-0-0--0-0--0-0--0-0-0----0--0-0--0-0--0-0--0-0-0----|
D|--2---------------------------2--2-2--2-2--2-2--2-2-0----|
A|--3-------------------------0----------------------------|
E|---------------------------------------------------------|
Siga repitiendo todo lo anterior hasta llegar a la siguiente parte 
de la canción

E|---0----0--------0----0------------|---0----0--------0-----------|
B|-0--------0----0--------0----------|-0--------0----0-------------|
G|-----16-----16-----16--------------|-----16-----16---------------|
D|----------------------------17-16--|-----------------------------|
A|-----------------------------------|-----------------------------|
E|-----------------------------------|-----------------------------|

Entonces


2da parte de la cancion
E|-0-0--0-0--0-0---x-2-2-x-x---|
B|-0-0--0-0--0-0---x-3-3-x-x---|
G|-0-0--0-0--0-0---x-2-2-x-x---|  x 3
D|-2-2--2-2--2-2---x-4-4-x-x---|
A|-2-2--2-2--2-2---x-3-3-x-x---|
E|-0-0--0-0--0-0---x-----------|


E|-0--0--0-0--0----0-0--x-0-2-2--2-2---2-2--2--x--x-------------|
B|-0--0--0-0--0----0-0--x-0-3-3--3-3---3-3--3--x--x-------------|
G|-0--0--0-0--0----0-0--x-2-2-2--2-2---2-2--2--x--x-------------|
D|-2--2--2-2--2----2-2--x-2-0-0--0-0---0-0--0--x--x-------------|
A|-0--0--0-0--0----0-0--x-0---x--x-x---x-x--x-------------------|
E|----------------------------2--2-2---2-2--2-------------------|


E|------------------------------------------------------------------------|
B|----------12----------15------------12-----------15-----------12--------|
G|-------12----12----16------------12----12-----16-----------12----12-----|
D|----14----------14--------14--14----------14--------14--14----------14--|
A|-14-------------15--------14--------------15--------14--------------15--|
E|------------------------------------------------------------------------|


E|--------|-----------------------------------------------------|
B|----15--|-12-------12-------12-------10-------10--------------|
G|-16-----|----12-------12-------12-------11-------11-----------|
D|--------|-------14-------14-------14-------12-------12s14-----|
A|--------|-----------------------------------------------------|
E|--------|-----------------------------------------------------|


E|------------------------------------------------------------------------|
B|----------12----------15------------12-----------15-----------12--------|
G|-------12----12----16------------12----12-----16-----------12----12-----|
D|----14----------14--------14--14----------14--------14--14----------14--|
A|-14-------------15--------14--------------15--------14--------------15--|
E|------------------------------------------------------------------------|


E|--------|-----------------------------------------------------|
B|----15--|-12-------12-------12-------10-------10--------------|
G|-16-----|----12-------12-------12-------10-------10-----------|
D|--------|-------12-------12-------12-------11-------11-12-----|
A|--------|-----------------------------------------------------|
E|--------|-----------------------------------------------------|


E|------------------------------------------------------------------------|
B|----------12----------15------------12-----------15-----------12--------|
G|-------12----12----16------------12----12-----16-----------12----12-----|
D|----14----------14--------14--14----------14--------14--14----------14--|
A|-14-------------15--------14--------------15--------14--------------15--|
E|------------------------------------------------------------------------|


E|--------|-----------------------------------------------------|
B|----15--|-12-------12-------12-------13-------13--------------|
G|-16-----|----12-------12-------12-------14-------14-----------|
D|--------|-------14-------14-------14-------16-------16s14-----|
A|--------|-----------------------------------------------------|
E|--------|-----------------------------------------------------|


E|------------------------------------------------------------------------|
B|----------12----------15------------12-----------15-----------12--------|
G|-------12----12----16------------12----12-----16-----------12----12-----|
D|----14----------14--------14--14----------14--------14--14----------14--|
A|-14-------------15--------14--------------15--------14--------------15--|
E|------------------------------------------------------------------------|


E|--------|-----------------------------------------------------|
B|----15--|-12-------12-------12-------14-------14--------------|
G|-16-----|----12-------12-------12-------15-------15-----------|
D|--------|-------12-------12-------12-------14-------14s12-----|
A|--------|-----------------------------------------------------|
E|--------|-----------------------------------------------------|


E|------------------------------------------------------------------------|
B|----------12----------15------------12-----------15-----------12----15-|
G|-------12----12----16------------12----12-----16-----------12----12-16-|
D|----14----------14--------14--14----------14--------14--14----------14-|
A|-14-------------15--------14--------------15--------14--------------15-|
E|------------------------------------------------------------------------|



3ra parte de la cancion
E|--------------------------------------------------|--3---3--3-3--3---3-3-|
B|-2---2--2-2--2---2-2----2-2--2---2-2-2-2--2--x-x--|--3---3--3-3--3---3-3-|
G|-2---2--2-2--2---2-2----2-2--2---2-2-2-2--2--x-x--|--2---2--2-2--2---2-2-|
D|-2---2--2-2--2---2-2----2-2--2---2-2-2-2--2--x-x--|--0---0--0-0--0---0-0-|
A|-0---0--0-0--0---0-0----0-0--0---0-0-0-0--0--x-x--|--x---x--x-x--x---x-x-|
E|--------------------------------------------------|--3---3--3-3--3---3-3-|


E|--3-3-3-3---3-3-3-3--3--x--x--|--0----0--0-0--0----0-0----0-0--0---0-0-0-|
B|--3-3-3-3---3-3-3-3--3--x--x--|--1----1--1-1--1----1-1----1-1--1---1-1-1-|
G|--2-2-2-2---2-2-2-2--2--x--x--|--2----2--2-2--2----2-2----2-2--2---2-2-2-|
D|--0-0-0-0---0-0-0-0--0--x--x--|--3----3--3-3--3----3-3----3-3--3---3-3-3-|
A|--x-x-x-x---x-x-x-x--x--x--x--|------------------------------------------|
E|--3-3-3-3---3-3-3-3--3--x--x--|------------------------------------------|


E|-0--0--x-x--|--0----0---0-0--0---0-0----0-0--0---0-0-0-0--0--x--x---|
B|-1--1--x-x--|--1----1---1-1--1---1-1----1-1--1---1-1-1-1--1--x--x---|
G|-2--2--x-x--|--2----2---2-2--2---2-2----2-2--2---2-2-2-2--2--x--x---|
D|-3--3--x-x--|--0----0---0-0--0---0-0----0-0--0---0-0-0-0--0--x--x---|
A|------------|-------------------------------------------------------|
E|------------|-------------------------------------------------------|

 Punto A
E|--------------------------------------------------|--3---3--3-3--3---3-3-|
B|-2---2--2-2--2---2-2----2-2--2---2-2-2-2--2--x-x--|--3---3--3-3--3---3-3-|
G|-2---2--2-2--2---2-2----2-2--2---2-2-2-2--2--x-x--|--2---2--2-2--2---2-2-|
D|-2---2--2-2--2---2-2----2-2--2---2-2-2-2--2--x-x--|--0---0--0-0--0---0-0-|
A|-0---0--0-0--0---0-0----0-0--0---0-0-0-0--0--x-x--|--x---x--x-x--x---x-x-|
E|--------------------------------------------------|--3---3--3-3--3---3-3-|


E|--3-3-3-3---3-3-3-3--3--x--x--|--0----0--0-0--0----0-0----0-0--0---0-0-0-|
B|--3-3-3-3---3-3-3-3--3--x--x--|--1----1--1-1--1----1-1----1-1--1---1-1-1-|
G|--2-2-2-2---2-2-2-2--2--x--x--|--2----2--2-2--2----2-2----2-2--2---2-2-2-|
D|--0-0-0-0---0-0-0-0--0--x--x--|--3----3--3-3--3----3-3----3-3--3---3-3-3-|
A|--x-x-x-x---x-x-x-x--x--x--x--|--3----3--3-3--3----3-3----3-3--3---3-3-3-|
E|--3-3-3-3---3-3-3-3--3--x--x--|------------------------------------------|


E|-0--0--x-x--|--0---0--0-0-0----0-0----0-0-0--0-0-0-0-0-x-x------------|
B|-1--1--x-x--|--0---0--0-0-0----0-0----0-0-0--0-0-0-0-0-x-x------------|
G|-2--2--x-x--|--0---0--0-0-0----0-0----0-0-0--0-0-0-0-0-x-x------------|
D|-3--3--x-x--|--0---0--0-0-0----0-0----0-0-0--0-0-0-0-0-x-x------------|
A|-3--3--x-x--|--x---x--x-x-x----x-x----x-x-x--x-x-x-x-x-x-x------------|
E|------------|--3---3--3-3-3----3-3----3-3-3--3-3-3-3-3-x-x------------|

Repita el procedimiento desde el punto A a través de resto de la canción hasta outro



E|-0----0---0-0--0----0-0----0-0--0---0-0--0--0--x---0-----|
B|-1----1---1-1--1----1-1----1-1--1---1-1--1--1--x---1-----|
G|-2----2---2-2--2----2-2----2-2--2---2-2--2--2--x---2-----|
D|-3----3---3-3--3----3-3----3-3--3---3-3--3--3--x---0-----|
A|-3----3---3-3--3----3-3----3-3--3---3-3--3--3--x---------|
E|---------------------------------------------------------||


Que te parecio? Calificalo con estrellas!!

Rating: 6.3/10 (31 votos)

Este fichero es trabajo propio de su transcriptor y representa su interpretación personal de la canción. El material contenido en esta página es para exclusivo uso privado, por lo que se prohibe su reproducción o retransmisión, así como su uso para fines comerciales.


Deja tus comentarios:

Letras de red hot chili peppers
Letras de canciones | Musica Independiente