Acordes y tablaturas para guitarra

Acordes y Tablaturas
Usuario: Password:

Buscar:
Acordes y Tablaturas >> Letra r >> Acordes de red hot chili peppers >> Dosed
Tablatura de Dosed, red hot chili peppers

Dosed

Red hot chili peppers






DOSED

.

Guitarra 1: limpia eléctrico con efectos de reverberación y coro


e--12----------12-----------12---------12--
B-----------12-----------12---------12-----
G-------12----------12----------12---------
D------------------------------------------
A------------------------------------------
E------------------------------------------

------10--------10--------7------7--
----12--------12--------8-------8---
-12-------12---------9-------9------
------------------------------------
------------------------------------
------------------------------------


Guitarra 2:  eléctrico ligero con reverb y overdrive naturales

Intro: NO voz
e-----------------------------------------------
B-----------------------------------------------
G--4---4---7---4---4--------4---4---7---4---4---
D-----------------------------------------------
A-----------------------------------------------
E-----------------------------------------------

-----------------------------------------------------
-----------------------------------------------------
-------4---4---7---4---4---------4--4---7---9--4-----
-----------------------------------------------------
-----------------------------------------------------
-----------------------------------------------------


verso 1:  " I  got dosed by you, closer 
to do?"
e-------------------------------------
B-15----------------------15----------
G-------11---12---------------11---12-
D-------------------------------------
A-------------------------------------
E-------------------------------------

than most to you, what am i supposed 
-------------------------
-------------15----------
---------------11---12---
-------------------------
-------------------------
-------------------------


"Take it away I never had it anyway, 
e-------19--17--15--14--15-----------
B------------------------------------
G------------------------------------
D------------------------------------
A------------------------------------
E------------------------------------

Take it away and everything will be ok"
----------------------15--14--12--10--12---
-------------------------------------------
-------------------------------------------
-------------------------------------------
-------------------------------------------
-------------------------------------------


verso 2: "In you a star is born, you cut a perfect form,
warm"
e--------------------------------------------------------
B--------------------------------------------------------
G--4---4---7---4---4--------4---4---7---4---4------------
D--------------------------------------------------------
A--------------------------------------------------------
E--------------------------------------------------------

 someone forever 
------------------------------------------------
----15------------------15------------------15--
--11---12-----------11---12-----------11---12---
------------------------------------------------
------------------------------------------------
------------------------------------------------

  Pre-coro:  " Lay on lay on lay on lay on"  
e-------19--17--15--14--15-------------------
B--------------------------------------------
G--------------------------------------------
D--------------------------------------------
A--------------------------------------------
E--------------------------------------------

"Lay on lay on lay on lay on"
--------------15--14--12--10--12------
--------------------------------------
--------------------------------------
--------------------------------------
--------------------------------------
--------------------------------------

Coro

      G               D                  Em            C
e---3------------5--------------7------------8-----------
B---3------------7--------------8------------8-----------
G---4------------7--------------9------------9-----------X2
D---5------------7--------------9------------10----------
A---5------------ 5-------------7------------10----------
E---3------------ 5-------------7------------8-----------



Guitarra 2:

"Way upon the mountain where she died"
e-----7---8--10-------------------------
B-----8---------------------------------
G----------------------11---12--14------
D----------------------12---------------
A---------------------------------------
E---------------------------------------

--12----12----12-------12--------15--14--12--10-
------------------------------12----------------
------------------------------------------------
------------------------------------------------
------------------------------------------------
------------------------------------------------

"All I ever wanted was your life"
e----7---8--7------------------------------------
B----8-------------------------12----13------12--
G----------------------11-----12----12------12---
D----------------------12------------------------
A------------------------------------------------
E------------------------------------------------

-------------------------------------------
--12--12-12-12--13--12-12------12----------
-12--12-12-12--12--12-12-12--12------------
----------------------------------------14-
-------------------------------------------
-------------------------------------------

"Deep inside the canyon i can't hide"
e-----7---8--10---------------------------12--
B-----8---------------------------------------
G----------------------11---12--14------------
D----------------------12---------------------
A---------------------------------------------
E---------------------------------------------

--12----12-------12--------15--14--12--10--
------------------------12-----------------
-------------------------------------------
-------------------------------------------
-------------------------------------------
-------------------------------------------

"All I ever wanted was your life"
e----7---8--7-----------------------------
B----8-------------------------12----13---
G----------------------11-----12----12----
D----------------------12-----------------
A-----------------------------------------
E-----------------------------------------

----------------------------------------
---12----12--12-12-12--13--13-13-15--15-
--12----12--12-12-12--12--12-12-12--12--
----------------------------------------
----------------------------------------
----------------------------------------
El versículo tres es el mismo que el anterior verso. 


      G               D                  Em            C
e---3------------5--------------7------------8----------
B---3------------7--------------8------------8----------
G---4------------7--------------9------------9---------- X1
D---5------------7--------------9------------10---------
A---5------------ 5-------------7------------10---------
E---3------------ 5-------------7------------8----------
y, a continuación:

     G               D                  Em            Em            G        
    G
e---3------------5--------------7------------7----------10-------10---
B---3------------7--------------8------------8----------12-------12---
G---4------------7--------------9------------9----------12-------12--- X1
D---5------------7--------------9------------9----------12-------12---
A---5------------ 5-------------7------------7----------10-------10---
E---3------------ 5-------------7------------7----------10-------10---


Outro:
Solo:

e---12--------12--------12--------12-------12-------------------------------
B--------15--------15--------15-------15-------15------12----12---12-12-12--
G--------------------------------------------------------------------------- X2
D---------------------------------------------------------------------------
A---------------------------------------------------------------------------
E---------------------------------------------------------------------------

e--------------------------------------------------------------
B---12--13-13-13--13-13--12------------------------------------
G-------------------------------------12--12--12--11--12--12---
D--------------------------------------------------------------
A--------------------------------------------------------------
E--------------------------------------------------------------

---------------------------------------------------------------
--12--13--12--13--12--13--12-----------------------------------
----12--12--12--12--12--12--12--12--12--12---------------------
----------------------------------------------------14--14--14-
---------------------------------------------------------------
---------------------------------------------------------------

e---12--------12--------12--------12-------12------------------------------
B--------15--------15--------15-------15-------15------12----12---12-12-12-
G-------------------------------------------------------------------------- X2
D--------------------------------------------------------------------------
A--------------------------------------------------------------------------
E--------------------------------------------------------------------------

e-----------------------------------------------------------------------
B-15----15----15----15--15--15--------12(b)13--13--13--13--13--13(r)12--
G-----------------------------------------------------------------------
D-----------------------------------------------------------------------
A-----------------------------------------------------------------------
E-----------------------------------------------------------------------

----------------------------------
---12------12-----13---12---15----
----------------------------------
----------------------------------
----------------------------------
----------------------------------


Que te parecio? Calificalo con estrellas!!

Rating: 4.6/10 (19 votos)

Este fichero es trabajo propio de su transcriptor y representa su interpretación personal de la canción. El material contenido en esta página es para exclusivo uso privado, por lo que se prohibe su reproducción o retransmisión, así como su uso para fines comerciales.


Deja tus comentarios:

Letras de red hot chili peppers
Letras de canciones | Musica Independiente