Enviado por: tiger-81
Agrandar Letra
Reducir Letra
Imprimir



Rolling Stones, Paint It Black

Paint It Black: por david ibarguen

bueno soy nuevo en esto asi que si hai algo mal solo pongalo ok
ahi les va:

Intro:

e---0-1-2-1-0---------0-----0------
b-3-----------3-3-2-3---023---320-2
g----------------------------------
D----------------------------------
A----------------------------------
E----------------------------------



**verso I:

e---0-1-2-1-0---------0-----------
b-3-----------3-3-2-3---3-2v------
g---------------------------------
D---------------------------------
A---------------------------------
E--------------------------------- x2
I see a red door and I want it painted black
No colors anymore I want them to turn black
**cambio de tono:
e-10-8-8-----------------------------
b--------------8-8--8-10-10-10-8-10v-
g--------10-10-----------------------
D------------------------------------
A------------------------------------
E------------------------------------

e-10-8-8------------------------------------
b--------------8-8--8-10-10-10-10-8-10-8-5v-
g--------10-10------------------------------
D-------------------------------------------
A-------------------------------------------
E-------------------------------------------
I see the girls walk by dressed in their summer clothes
I have to turn my head until my darkness goes


**verso II:

e---0-1-2-1-0---------0-----------
b-3-----------3-3-2-3---3-2v------
g---------------------------------
D---------------------------------
A---------------------------------
E--------------------------------- x2
I see a line of cars and they\'re all painted black
With flowers and my love both never to come back
**cambio de tono:
e-10-8-8-----------------------------
b--------------8-8--8-10-10-10-8-10v-
g--------10-10-----------------------
D------------------------------------
A------------------------------------
E------------------------------------

e-10-8-8------------------------------------
b--------------8-8--8-10-10-10-10-8-10-8-5v-
g--------10-10------------------------------
D-------------------------------------------
A-------------------------------------------
E-------------------------------------------
I see people turn their heads and quickly look away
Like a new born baby it just happens ev\'ry day


**verso III:

e---0-1-2-1-0---------0-----------
b-3-----------3-3-2-3---3-2v------
g---------------------------------
D---------------------------------
A---------------------------------
E--------------------------------- x2
I look inside myself and see my heart is black
I see my red door and it has been painted black
**cambio de tono:
e-10-8-8-----------------------------
b--------------8-8--8-10-10-10-8-10v-
g--------10-10-----------------------
D------------------------------------
A------------------------------------
E------------------------------------

e-10-8-8------------------------------------
b--------------8-8--8-10-10-10-10-8-10-8-5v-
g--------10-10------------------------------
D-------------------------------------------
A-------------------------------------------
E-------------------------------------------
Maybe then I\'ll fade away and not have to face the facts
It\'s not easy facin\' up when your whole world is black

**verso IV:

e---0-1-2-1-0---------0-----------
b-3-----------3-3-2-3---3-2v------
g---------------------------------
D---------------------------------
A---------------------------------
E--------------------------------- x2
No more will my green sea go turn a deeper blue
I could not foresee this thing happening to you
**cambio de tono:
e-10-8-8-----------------------------
b--------------8-8--8-10-10-10-8-10v-
g--------10-10-----------------------
D------------------------------------
A------------------------------------
E------------------------------------

e-10-8-8------------------------------------
b--------------8-8--8-10-10-10-10-8-10-8-5v-
g--------10-10------------------------------
D-------------------------------------------
A-------------------------------------------
E-------------------------------------------
If I look hard enough into the settin\' sun
My love will laugh with me before the mornin\' comes


**verso V:

e---0-1-2-1-0---------0-----------
b-3-----------3-3-2-3---3-2v------
g---------------------------------
D---------------------------------
A---------------------------------
E--------------------------------- x2
I see a red door and I want it painted black
No colors anymore I want them to turn black
**cambio de tono:
e-10-8-8-----------------------------
b--------------8-8--8-10-10-10-8-10v-
g--------10-10-----------------------
D------------------------------------
A------------------------------------
E------------------------------------

e-10-8-8------------------------------------
b--------------8-8--8-10-10-10-10-8-10-8-5v-
g--------10-10------------------------------
D-------------------------------------------
A-------------------------------------------
E-------------------------------------------
I see the girls walk by dressed in their summer clothes
I have to turn my head until my darkness goes


**verso V:

e---0-1-2-1-0---------0-----------
b-3-----------3-3-2-3---3-2v------
g---------------------------------
D---------------------------------
A---------------------------------
E--------------------------------- x6
Hmm, hmm, hmm,...

I wanna see it painted, painted black
Black as night, black as coal
I wanna see the sun blotted out from the sky
I wanna see it painted, painted, painted, painted black
Yeah!  

** en esta parte final se hace una especie de solo:

e-5-6-5-3-5-3---3-----------------0------
b-------------6---6-5-6-5-3-3-2-3---3-2v-
g----------------------------------------
D----------------------------------------
A----------------------------------------
E----------------------------------------

bueno esto es todo espero que les haya gustado y pues cualqier correccion o que no sepan algo la escriben hay abajo o me  contanctan a mi correo: [email protected]
Aviso: Este fichero es trabajo propio de su transcriptor y representa su interpretación personal de la canción. El material contenido en esta página es para exclusivo uso privado, por lo que se prohibe su reproducción o retransmisión, así como su uso para fines comerciales.
comentario del colaborador: comenten porfa quiero saber que tal me quedo

Califica esta canción


Comentarios en Facebook