Acordes y tablaturas para guitarra

Acordes y Tablaturas
Usuario: Password:

Buscar:
Acordes y Tablaturas >> Letra R >> Acordes de Rata blanca >> el reino olvidado
Tablatura de el reino olvidado, Rata blanca

El reino olvidado

Rata blanca






Los Riff 3 y 4 estan en el final del texto.


Riff 1: x2
 e|-11-----11-----11-----11-----12-----12-----12-----12-----|
 B|----9-9----9-9----9-9----9-9----9-9----9-9----9-9----9-9-|
 G|---------------------------------------------------------|
 D|---------------------------------------------------------|
 A|---------------------------------------------------------|
 E|---------------------------------------------------------|

 e|-11-----11-----11-----11-----11-----11-----9-----9-----|
 B|----7-7----7-7----7-7----7-7----7-7----7-7---7-7---7-7-|
 G|-------------------------------------------------------|
 D|-------------------------------------------------------|
 A|-------------------------------------------------------|
 E|-------------------------------------------------------|

Riff 2: x2
 e|-11-----11-----11-----11-----12-----12-----12-----12-----|
 B|----9-9----9-9----9-9----9-9----9-9----9-9----9-9----9-9-|
 G|---------------------------------------------------------|
 D|---------------------------------------------------------|
 A|---------------------------------------------------------|
 E|---------------------------------------------------------|

 e|-14-----14-----14-----14-----14-----14-----14-----14-----|
 B|---12-12--12-12--12-12--12-12--12-12--11-11--11-11--11-11|
 G|---------------------------------------------------------|
 D|---------------------------------------------------------|
 A|---------------------------------------------------------|
 E|---------------------------------------------------------|



 e|----------------------------|----------------------------|
 B|----------------------------|----------------------------|
 G|----------------------------|----------------------4-----|
 D|----------------------------|----------------------4--4--|
 A|-6-4-6---6-4-6--------2-4-2-|-6-4-6---6-4-6--------2--4--|
 E|-4-2-4---4-2-4--0-2-4-------|-4-2-4---4-2-4--0-2-4----2--|

 e|----------------------------|----------------------------|
 B|----------------------------|----------------------------|
 G|----------------------------|----------------------4-----|
 D|----------------------------|----------------------4--4--|
 A|-6-4-6---6-4-6--------2-4-2-|-6-4-6---6-4-6--------2--4--|
 E|-4-2-4---4-2-4--0-2-4-------|-4-2-4---4-2-4--0-2-4----2--|


G#5                                  Riff 3
   Hoy que los hombres perdidos están
G#5                             Riff 3
   En los dominios de la oscuridad
E5          D#5     C#5         Riff 4
  Desde la eternidad,  ellos regresaran
E5-D#5        C#5            B5       C#5    D#5
   Los viejos reyes vendrán con la tempestad.


         Riff 1
La oscuridad, sabes que esta, desolando la tierra y el mar
           Riff 1
Tiempos sin paz, odio y dolor, necesito poder despertar
       Riff 2
Tu corazón, te llevara, hacia el reino olvidado que esta
        F#5*-B5-F#5
Solo dentro  de ti.

 e|----------------------------|----------------------------|
 B|----------------------------|----------------------------|
 G|----------------------------|----------------------4-----|
 D|----------------------------|----------------------4--4--|
 A|-6-4-6---6-4-6--------2-4-2-|-6-4-6---6-4-6--------2--4--|
 E|-4-2-4---4-2-4--0-2-4-------|-4-2-4---4-2-4--0-2-4----2--|

 e|----------------------------|----------------------------|
 B|----------------------------|----------------------------|
 G|----------------------------|----------------------4-----|
 D|----------------------------|----------------------4--4--|
 A|-6-4-6---6-4-6--------2-4-2-|-6-4-6---6-4-6--------2--4--|
 E|-4-2-4---4-2-4--0-2-4-------|-4-2-4---4-2-4--0-2-4----2--|

G#5                     Riff 3
   Puedes ser rico , mendigo, ladron
G#5                            Riff 3
   Duelen las yagas en tu corazón
E5        D#5       C#5             Riff4
  Volvamos a empezar   y el reino lograra
E5-D#5       C#5       B5        C#5  D#5
   Salvar la tierra y a toda la humanidad.


          Riff 1
La oscuridad, sabes que esta, desolando la tierra y el mar
             Riff 1
Tiempos sin paz, odio y dolor, necesito poder despertar
       Riff 2
Tu corazón, te llevara, hacia el reino olvidado que esta
        F#5*-B5-F#5
Solo dentro  de ti.


 e|---------------------------------------------|
 B|---------------------------------------------|
 G|---------------------------------------4-----|
 D|-6-------------------------------------4--4--| x6
 A|-6-------------------------------------2--4--|
 E|-4--------------------------9/2--0-2-4----2--|

(como en la estrofa)
E5 – D#5 – C#5 – D#5
E5–D#5–C#5–B5–C#5–D#5

         Riff 1
La oscuridad, sabes que esta, desolando la tierra y el mar
            Riff 1
Tiempos sin paz, odio y dolor, necesito poder despertar
       Riff 2
Tu corazón, te llevara, hacia el reino olvidado que esta

lejos de ti.

 e|-----------------------|-----------------------|
 B|-----------------------|-----------------------|
 G|-----------------------|-----------------------|
 D|-----------------------|-----------------------|
 A|-------6/7---9-7-6-6-4-|-------6/7---9-7-6-6-4-|
 E|-4-6-7-----------------|-4-6-7-----------------|

 e|-----------------------|-----------------------|
 B|-----------------------|-----------------------|
 G|-----------------------|-----------------------|
 D|-----------------------|-----------------------|
 A|-------6/7---9-7-6-6-4-|---4-6-6/7---9-7-6-6-4-|
 E|-7-6-7-----------------|-7---------------------|

Riff 1 x2
Riff 2 F#5*-B5-F#5

Final: G#5-F#5-G#5
       G#5-F#5-G#5



Riff 3
 e|------------------|
 B|------------------|
 G|------------4-----|
 D|------------4--4--|
 A|------------2--4--|
 E|-9/2--0-2-4----2--|

Riff 4
 e|--------------|
 B|--------------|
 G|--------------|
 D|--------------|
 A|-4-6-7-6-4-2--|
 E|--------------|

F#5*
 e|---|
 B|-7-|
 G|-6-|
 D|-4-|
 A|---|
 E|---|

Que te parecio? Calificalo con estrellas!!

Rating: 8.5/10 (288 votos)

Este fichero es trabajo propio de su transcriptor y representa su interpretación personal de la canción. El material contenido en esta página es para exclusivo uso privado, por lo que se prohibe su reproducción o retransmisión, así como su uso para fines comerciales.


Deja tus comentarios:

Letras de Rata blanca
Letras de canciones | Musica Independiente