Enviado por: subnor
Agrandar Letra
Reducir Letra
Imprimir



System of a down, Roulette

Esta version, despues de analizar la que habia subido anteriormente, me parece que es perfecta..
Disfrutenla!


Orden de los riffs..
============================
Riff 1 [x4]
Riff 2 [x2]
Riff 1 [x4]
Riff 2 [x4]
Solo (Riff 1 de base)
Riff 2 [x4]
Riff 3
============================



Riff 1

e|-------------------------------|-------------------------------|
B|----4------4-------8-------3---|-----6------6------1-------3---|
G|-------------------------------|-------------------------------|
D|-------------------------------|-------------------------------|
A|-3----3--3---3--6-------1----1-|--4----4--4-------------1----1-|
E|----------------------3--------|--------------3-4----4---------|


Riff 2

e|-----------------------------|------------------------------|
B|----4------4------0------0---|----2------3------1-------3---|
G|-----------------------------|------------------------------|
D|-----------------------------|------------------------------|
A|-3----3--3---3---------------|-1----1--1-------------1----1-|
E|---------------3----3--3---3-|-------------3-4----4---------|


Solo 

e|--8~---8-10-11~--10-11-13~---10-11-12-11--10/8---10--11--10--8--8~|
B|------------------------------------------------------------------|
G|------------------------------------------------------------------|
D|------------------------------------------------------------------|
A|------------------------------------------------------------------|
E|------------------------------------------------------------------|

e|--------------------------------------------------------------------|
B|----8-9-11-9--8/6--8--9--8--6--6------------8/9/8--8--8--6--6--4--4-|
G|--------------------------------------------8/9/8--8--8--7--7--5--5-|
D|------------------------------------8--8~---------------------------|
A|--------------------------------------------------------------------|
E|--------------------------------------------------------------------|



e|--8~---8-10-11~--10-11-13~---10-11-12-11--10/8---10--11--10--8--8~|
B|------------------------------------------------------------------|
G|------------------------------------------------------------------|
D|------------------------------------------------------------------|
A|------------------------------------------------------------------|
E|------------------------------------------------------------------|

e|--------------------------------------------------------------------|
B|----8-9-11-9--8/6--8--9--8--6--6------------8/9/8--8--8--6--6--4--4-|
G|--------------------------------------------8/9/8--8--8--7--7--5--5-|
D|------------------------------------8--8~---------------------------|
A|--------------------------------------------------------------------|
E|--------------------------------------------------------------------|




Riff 3

e|-5-|
B|-6-|
G|-7-|
D|-7-| (Queda sonando)
A|-5-|
E|-x-|


Espero que les guste.. me suena muchisimo mas que las otras versiones.. es un pokito complicado al principio pero no lo es.. 

Practiquen! 

Aguante SOAD!!!


Comenten sus dudas.. u opiniones
Aviso: Este fichero es trabajo propio de su transcriptor y representa su interpretación personal de la canción. El material contenido en esta página es para exclusivo uso privado, por lo que se prohibe su reproducción o retransmisión, así como su uso para fines comerciales.
comentario del colaborador: Made in SubNOr

Califica esta canción


Comentarios en Facebook