Enviado por:
noserastanbueno!

Los Piojos, Bicho De Ciudad

        D              G             D                G
e|--------------|----2-----|----------------|--------|
b|---------(3)--|-3------3-|----------3-----|--------|
g|---------(4)--|----------|--------4---4---|--------|
d|-----0--------|----------|-----0----------|-4—2h4--|
a|-0-2----------|----------|-0-2------------|--------|
E|--------------|----------|----------------|--------|
        D              G             D
e|----------------|-7--7-----5--|---10--10-10—10 |
b|--------------3-|-7---7--—5—5h|--10--10-10--10-|
g|----------2h4---|-------------|----------------|
d|-----0--4-------|-------------|----------------|
a|-0-2------------|-------------|----------------|
E|----------------|-------------|----------------|

e|--------|
b|--------|
g|--------|  = arreglo 1
d|------0-|
a|-0--2---|
E|--------|


   D            G                 D          G
¿Qué voy a hacer con tanto cielo para mí?
 D        G                D            G
Voy a volar, yo soy un bicho de ciudad.

 D              G                 D             G
¿Qué voy a hacer, cuál es el camino a seguir?
 D        G             D             G
Voy a soñar con ese beso al regresar.

arreglo 1

 D           G           D              G  |e|-11h14-16--|
Cierro los ojos, no imagino algo mejor     |b|---------15|
                                              (escuchar bien)


D         G        D         G
respiro hondo y tomo el vino...

Bm           G               D             A
       Y no te asustes si me río como un loco
 Em         G            D          A
       es necesario que a veces sea así

 Bm         G           D                 A
       será la vida que siempre nos pega un poco
  Em           G          D               A
       nos encandila con lo que está por venir.

     A        G        Bm            F#m      D        A
e|-0-0-0-0--3-3-|-2--2-2--2-2-2-|-2-2-2-2--2-2|-0--0-0--0-0-0-|
b|-2-2-2-2--3-3-|-3--3-3--3-3-3-|-2-2-2-2--3-3|-2--2-2--2-2-2-|
g|-2-2-2-2--0-0-|-4--4-4--4-4-4-|-2-2-2-2--2-2|-2--2-2--2-2-2-|
d|-2-2-2-2--0-2-|-4--4-4--4-4-4-|-4-4-4-4--0-0|-2--2-2--2-2-2-|x2
a|-0-0-0-0--2-2-|-2--2-2--2-2-2-|-4-4-4-4-----|-0--0-0--0-0-0-|
E|----------3-3-|---------------|-2-2-2-2-----|---------------|

A        G
Aaaaaaaaaaahhhh

e|----------------|-5--5---------|----------------|
b|--------------3-|----5^6--3——3-|----------------|
g|----------2h4---|----------4--4|-2--------------|
d|-----0--4-------|--------------|---4-2h4--------|
a|-0-2------------|--------------|----------------|
E|----------------|--------------|----------------|

D             G                   D        G
¿Qué voy a hacer con tanto cielo para mí?
 D       G                 D            G
voy a volar, yo soy un bicho de ciudad.
 D        G           D         G
Bajo un árbol me refugio del calor |e|-11h14-16--|
                                   |b|---------15|
 D       G         D           G
... en el silencio, escucho el río.

Bm            G             D              A
       Y no te asustes si me río como un loco
Em          G             D           A
       es necesario que mañana sea así
Bm         G             D                A
       será la vida que siempre nos pega un poco
Em            G             D              A
      nos encandila con lo que está por venir.

     A        G        Bm            F#m      D        A
e|-0-0-0-0--3-3-|-2--2-2--2-2-2-|-2-2-2-2--2-2|-0--0-0--0-0-0-|
b|-2-2-2-2--3-3-|-3--3-3--3-3-3-|-2-2-2-2--3-3|-2--2-2--2-2-2-|
g|-2-2-2-2--0-0-|-4--4-4--4-4-4-|-2-2-2-2--2-2|-2--2-2--2-2-2-|
d|-2-2-2-2--0-2-|-4--4-4--4-4-4-|-4-4-4-4--0-0|-2--2-2--2-2-2-|x2
a|-0-0-0-0--2-2-|-2--2-2--2-2-2-|-4-4-4-4-----|-0--0-0--0-0-0-|
E|----------3-3-|---------------|-2-2-2-2-----|---------------|

A G


e|-5---------|
b|---6h7-----|  = Arreglo 2
g|-------7---|


  D
Tengo algo mal pensado,
  G
little baby en el colchón
   D                           G
lloviznando de repente, donde está mi amor. (arreglo 2)
  D                                  G
Llegué de lejos yo te quiero enloquece de
  D
Alguien que te está buscando
  G
sed hay en sus manos.
  D    G
Es perfecto el aire,
  D                G
la cumbre bajo el sol
   D         G
de lo que quede de mí,
   D           G
te llevo un poco.


(estribillo otra vez)

A        G
Aaaaaaaaaaahhhh

y termina con

e|--------|
b|--------|
g|--------|
d|------0-|
a|-0--2---|
E|--------|

Aviso: Este fichero es trabajo propio de su transcriptor y representa su interpretación personal de la canción. El material contenido en esta página es para exclusivo uso privado, por lo que se prohibe su reproducción o retransmisión, así como su uso para fines comerciales.

Califica esta canción


Comentarios en Facebook