Acordes y tablaturas para guitarra

Acordes y Tablaturas
Usuario: Password:

Buscar:
Acordes y Tablaturas >> Letra Y >> Acordes de Yimura >> The River Flows In You
Tablatura de The River Flows In You, Yimura

The River Flows In You

Yimura






Intro
|-----------------------------|x2
|-10-9-10-9-10---10-----------|
|--------------9----7~------6-|
|-------------------------7---|
|-----------------------------|
|-----------------------------|

Verse
|-----------------------------------------|
|-10-9-10---9-10-----10-------------------|
|------------------9------7---4h6-7-9-6-4-|
|---------7------7------7---7-------7---6-|
|-----------------------------------------|
|-----------------------------------------|

|------------------------------------|
|------------------------------------|
|------------------6h7h9--7p6p4----6-|
|-7-6-7----7h9h11----------------7---|
|--------7---------------------------|
|------------------------------------|

|-------------------------------------9-7---7h9p7---------|
|-10-9-10---9-10-----10---------------------------10-9-10-|
|------------------9------7---4h6-7-9-----9-------------9-|
|---------7------7------7---7-----------------------------|
|---------------------------------------------------------|
|---------------------------------------------------------|

|------------------------------|
|------------------------------|
|-------------6h7h9--7p6p4-----|
|-----7h9h11-------------------|
|---7--------------------------|
|------------------------------|

Chorus
|----7---------------|x2
|-10---10-9-10-------|
|----------------9---|
|--------------7---7-|
|--------------------|
|--------------------|

|----7---------7-9-10/12-9-7--------|
|-10---10-9-10---------------10-9---|
|---------------------------------9-|
|-----------------------------------|
|-----------------------------------|
|-----------------------------------|

|----7---------------|x2
|-10---10-9-10-------|
|----------------9---|
|--------------7---7-|
|--------------------|
|--------------------|

|----7---------7-9-10/12-9-7--------|
|-10---10-9-10---------------10-9---|
|---------------------------------9-|
|-----------------------------------|
|-----------------------------------|
|-----------------------------------|

|----7---------------|x2
|-10---10-9-10-------|
|----------------9---|
|--------------7---7-|
|--------------------|
|--------------------|

|----7---------7-9-10/12-9-7--------|
|-10---10-9-10---------------10-9---|
|---------------------------------9-|
|-----------------------------------|
|-----------------------------------|
|-----------------------------------|

|----7---------------|x2
|-10---10-9-10-------|
|----------------9---|
|--------------7---7-|
|--------------------|
|--------------------|

|----7---------7-9-10/12-9-7-------------|
|-10---10-9-10---------------10-9--------|
|---------------------------------9-6----|
|-------------------------------------7~-|
|----------------------------------------|
|----------------------------------------|

Verse 2
|-----------------------------------------|
|-10-9-10---9-10-----10-------------------|
|------------------9------7---4h6-7-9-6-4-|
|---------7------7------7---7-------7---6-|
|-----------------------------------------|
|-----------------------------------------|

|-------------------------------------------------------------|
|-------------------------------------------------------------|
|---------------------------6-7-9---6-7-9---7-6-----7-6-----6-|
|-7-6-7---7-9-11---7-9-11-----------------------9-------9-7---|
|-----7-7--------7--------7-------7-------7-------7-----------|
|-------------------------------------------------------------|

|-------------------------------------9-7---7h9p7---------|
|-10-9-10---9-10-----10---------------------------10-9-10-|
|------------------9------7---4h6-7-9-----9-------------9-|
|---------7------7------7---7-----------------------------|
|---------------------------------------------------------|
|---------------------------------------------------------|

|-----------------------------------------------|
|-----------------------------------------------|
|-------------------6-7-9---6-7-9---7-6---------|
|-7-9-11---7-9-11-----------------------9---6-9-|
|--------7--------7-------7-------7-------7-----|
|-----------------------------------------------|

Chorus 2
|----7---------------------7---------------|
|-10---10-9-10-------10-10---10-9-10-------|
|----------------9---------------------9---|
|--------------7---7-----------------7---7-|
|------------------------------------------|
|------------------------------------------|

|----7---------7-9-10/12-9-7------------|
|-10---10-9-10---------------10-9-------|
|-----------------------------------9---|
|---------------------------------9---9-|
|---------------------------------------|
|---------------------------------------|

|------7----------------------7---------------|
|-10-10---10-9-10-------10-10---10-9-10-------|
|-------------------9---------------------9---|
|-----------------7---7-----------------7---7-|
|---------------------------------------------|
|---------------------------------------------|

|----7---------7-9-10/12-9-7------------|
|-10---10-9-10---------------10-9-------|
|-----------------------------------9---|
|---------------------------------9---9-|
|---------------------------------------|
|---------------------------------------|

|------7----------------------7---------------|
|-10-10---10-9-10-------10-10---10-9-10-------|
|-------------------9---------------------9---|
|-----------------7---7-----------------7---7-|
|---------------------------------------------|
|---------------------------------------------|

|----7---------7-9-10/12-9-7------------|
|-10---10-9-10---------------10-9-------|
|-----------------------------------9---|
|---------------------------------9---9-|
|---------------------------------------|
|---------------------------------------|

|------7----------------------7---------------|
|-10-10---10-9-10-------10-10---10-9-10-------|
|-------------------9---------------------9---|
|-----------------7---7-----------------7---7-|
|---------------------------------------------|
|---------------------------------------------|

|----7---------7-9-10/12-9-7------------------|
|-10---10-9-10---------------10-9-------------|
|-------------------------------------------6-|
|---------------------------------9-6-----7---|
|-------------------------------------7~------|
|---------------------------------------------|

Verse 3
|-------------------------------|
|-10-9-10-9-10---10-------------|
|------------6-9----7-6-7-9-6---|
|-----------------------------9-|
|-------------------------------|
|-------------------------------|

|---------------------------------------------|
|---------------------------------------------|
|----------------------6h7h9---6-7p6--------6-|
|-7-6---7---7-9-11---7---------------9~---7---|
|------7--7--------7---------7----------------|
|-----9---------------------------------------|

|-----------------------------9-7-|
|-10-9-10-9-10---10-------------0-|
|------------9-9----7-4h6-7-9---9-|
|-----------11--------------------|
|---------------------------------|
|---------------------------------|

|------------------------------------|
|------------------------------------|
|--------------------6h7h9-----6p7---|
|-7-6-7~--7-9-11---7---------7-----9-|
|-----7----------7---------7---------|
|------------------------------------|

|---------------|
|---------------|
|---------------|
|--------4~--7~-|
|----4~---------|
|-5~------------|

==============================================


Que te parecio? Calificalo con estrellas!!

Rating: 7.4/10 (342 votos)

Este fichero es trabajo propio de su transcriptor y representa su interpretación personal de la canción. El material contenido en esta página es para exclusivo uso privado, por lo que se prohibe su reproducción o retransmisión, así como su uso para fines comerciales.


Comentario de ffloor5
Tocada en el piano es re linda esta cancion,
Deja tus comentarios:
Letras de canciones | Musica Independiente