Acordes y tablaturas para guitarra

Acordes y Tablaturas
Usuario: Password:

Buscar:
Acordes y Tablaturas >> Letra L >> Acordes de Led Zeppelin >> Rock And Roll
Tablatura de Rock And Roll, Led Zeppelin

Rock And Roll

Led Zeppelin






                     "Rock N' Roll", Led Zeppelin
-------------------------------------------------------------------------------
·Transcripto por: Sebastián Ar.
·Buenos Aires, Argentina, 2009
·Email MSN: [email protected]
·Sí, sacado de oído.
_____________________________________
+Álbum: "Led Zeppelin IV" (1971)
+Afinación: EADGBe Standard
+Ritmo: 4/4
+Dificultad: Intermedia/Avanzada
_____________________________________
Les dejo la Intro, nomás...

Batería, después:

e|----------------------------
B|----------------------------
G|2-2-2-2-2-2--2--22--222-2---
D|2-2-2-5p4p2--2--22--444-2---
A|0-4-0-0-0-0--3b-00--000-0...
E|----------------------------
[x 2 veces]

e|--------
B|-888/7--
G|-666/5--
D|--------
A|--------
E|--------(se escucha este riff encima)

e|----------------------------
B|----------------------------
G|2-2-2-5p4p2--2--22--444-2---
D|0-4-0-0-0-0--3b-00--000-0...
A|----------------------------
E|----------------------------

e|--------
B|-777/8--
G|-555/6--
D|--------
A|--------
E|--------(se escucha este riff encima)

e|----------------------------
B|----------------------------
G|2-2-2-2-2-2--2--22--222-2---
D|2-2-2-5p4p2--2--22--444-2---
A|0-4-0-0-0-0--3b-00--000-0...
E|----------------------------

e|--------
B|-888/9--
G|-666/7--
D|--------
A|--------
E|--------

e|----------------------------
B|----------------------------
G|----------------------------
D|2-2-2-2-2-2--2--22--222-2---
A|2-2-2-5p4p2--2--22--444-2---
E|0-4-0-0-0-0--3b-00--000-0...

e|----------------------------
B|----------------------------
G|2-2-2-5p4p2--2--22--444-2---
D|0-4-0-0-0-0--3b-00--000-0...
A|----------------------------
E|----------------------------


e|-------
B|-------
G|-------
D|-------
A|-3p0---
E|-----3-(se esucha este riff encima)
[repite mucho, y muy rapido]


Que te parecio? Calificalo con estrellas!!

Rating: 6.3/10 (67 votos)

Este fichero es trabajo propio de su transcriptor y representa su interpretación personal de la canción. El material contenido en esta página es para exclusivo uso privado, por lo que se prohibe su reproducción o retransmisión, así como su uso para fines comerciales.


Deja tus comentarios:

Letras de Led Zeppelin
Letras de canciones | Musica Independiente