Acordes y tablaturas para guitarra

Acordes y Tablaturas
Usuario: Password:

Buscar:
Acordes y Tablaturas >> Letra L >> Acordes de LOS TEMERARIOS >> Como Tu
Acordes de Como Tu, LOS TEMERARIOS

Como Tu

LOS TEMERARIOS






am.c.c7.em.f.g.
 Esta es una rola bien chida de los temerarios, se la quiero dedicar a la niña mas linda del universo: Angie, va para ti con todo mi amor.
  INTRO:


 e|----------------------------|
 B|----------------------------|
 G|---5--5-5-4---2-2-0-0-1-----|
 D|--7---7-7-5---3-3-2-0-2-----|
 A|----------------------------|
 E|----------------------------|


 e|----------------------------------|
 B|----------------10-8-6-6/8--------|
 G|---5--5-5-7-----10-9-7-7/9--------|
 D|--7---7-7-9-----------------------|
 A|-------------10-------------------|
 E|----------------------------------|

                                     F   G   C
 e|---8---8--8--7----5-5-3-1-1/3-----|---|---|-----|
 B|---9---9--9-8-----6-6-5-3-3/5-----|---|---|-----|
 G|--10--10-10-----------------------|---|---|-----|
 D|----------------------------------|---|---|-----|
 A|----------------------------------|---|---|-----|
 E|----------------------------------|---|---|-----|
                                     V   V   V


               [Solo teclado]

       C                
 Como tu,
                  F
 Solo quiero olvidar.
                 G    F
 Solo quiero borrar,
       C
 Tu cariño.

       C
 Como tu,
   C7              F            
 Asi como hiciste tu,
                   G    F
 Solo quiero arrancar,
           C          Am Em   
 Mi gran amor por ti, ah ah.

  F    G
 Como tu,
     C           Am
 Me diste amor,
 F      G
 Y despues,
      C           Am
 Un triste adios.

    F        G
 Quiero olvidar,
     C           Am
 Tu risa tu voz.
    F       G
 Quiero apagar,
      C            Am
 Mi llanto por ti.

    F        G
 Quiero olvidar,
      C         Am  
 Que te conoci,
 F    G
 Asi, asi, 
                 C
 Asi, como hiciste tu.


                  INTRO

  F    G
 Como tu,
     C          Am
 Me diste amor,
 F      G
 Y despues,
      C           Am
 Un triste adios.

    F        G
 Quiero olvidar,
     C            Am
 Tu risa, tu voz.
    F       G
 Quiero apagar,
      C            Am
 Mi llanto por ti.

    F        G
 Quiero olvidar,
      C         Am
 Que te conoci,
 F    G
 Asi, asi,
              C
 Asi, como hiciste tu...

 F    G                 C
 Asi, asi....Como hiciste tu.

 

Que te parecio? Calificalo con estrellas!!

Rating: 7.0/10 (28 votos)

Este fichero es trabajo propio de su transcriptor y representa su interpretación personal de la canción. El material contenido en esta página es para exclusivo uso privado, por lo que se prohibe su reproducción o retransmisión, así como su uso para fines comerciales.


Comentario de Grillo!!!
fuente: lacuerda.net
Deja tus comentarios:
Letras de canciones | Musica Independiente