Acordes y tablaturas para guitarra

Acordes y Tablaturas
Usuario: Password:

Buscar:
Acordes y Tablaturas >> Letra T >> Acordes de Tan Bionica >> Boquita Pintada
Acordes de Boquita Pintada, Tan Bionica

Boquita Pintada

Tan Bionica






am.c.em.f.g.
Bueno esta es la única versión en internet con punteo, intro, y tab de 1ra guitarra, 
esta es la versión correcta , y mas completa.. espero que les guste. 

Intro:
1ra guitarra
-------1--------00-1-33-1-------------------1--------00-1-33-1
1--1---1--1--1-------------3-1-1-1--1--1---1--1--1-------------
--0--0--0--0-----------------------------0—0—0-0---------------
----------------------------------------------------------------
----------------------------------------------------------------
----------------------------------------------------------------

-------------------1--------00-1-33-1------------------
-3-1-1-1--1--1---1--1--1-------------3-1-1-1/----------
--------------0—0—0--0---------------------------------
-------------------------------------------------------
-------------------------------------------------------
-------------------------------------------------------

----------------------------------------------------------------
-3/5-3—5/6-5-3-5h3-1-------------------------------------------
----------------------------------------------------------------
----------------------------------------------------------------
----------------------------------------------------------------
----------------------------------------------------------------

mientras la 2da guitarra hace un arpegio con estas notas:
CFG x4



    C                                        Em
 A pesar de las canciones que te pueda yo escribir
      F           G          C  Em  Am
un milagro misterioso tiene que surgir
        F             G             C
para que alguien me vuelva a ver feliz
C                                           Em
Choco con la misma piedra y me vuelvo a repetir
        F            G          C Em Am
y un error tan culminante pudo destruir
     F         G          C
el amor y mis ganas de vivir.
C                                         Em
Como extraño tus locuras, tu forma de caminar,
       F           G          C    Em   Am
tus delirios peligrosos y tu forma de andar
     F              G            C
por ahí cumpliendo sueños sin mirar.


C                                         Em
Es inútil que la vida me de otra oportunidad
        F            G             C     Em Am
si tus manos, ni tu cuerpo no me quieren tocar
        F              G          C
si me caigo, no me vuelvo a levantar.

   F                           G
 Quiero para siempre que te quedes en mi mente
           C    Em    Am
y que me vuelvas a vivir.
F                          G                C  Em Am
Quiero que no olvides todo lo que necesito de tu amor
         F            G          C   Em  Am
y en la noche de las noches me veras caer,
F                 G
pidiendo perdón amor!

              F           G          C   Em    Am
Yo quiero el beso perfumadito de tu boquita pintada
         F           G           C Em        Am
que me llene de alegría, que se calme este dolor,
        F                 G                C       Em   Am
y los efectos que nunca siento, son los rebotes del viento,
            F            G
que calman sueños.

      C                             Em    
   Anoche después del trueno, yo salí a caminar
       F           G        C  Em     Am
sin saber que tu fantasma me quería pegar
F           G
me tiro no me pude levantar.

El reloj es una bomba, como un rayo de Plutón
los estudios, los amigos, la contaminación
y ese aire, que me hacia respirar.

 Esta mojado y hace frío, es de noche en la ciudad
vitamina sigue triste, no le quise preguntar
Qué es dolor, Qué es perder, y Qué es amar?

 Es mas joven tiene pinta, el no te hace enojar
el no sabe cuando duermes, cuando dejas de hablar.
Como yo, nunca nadie te va a amar.

   F                           G
 Quiero para siempre que te quedes en mi mente
           C    Em    Am
y que me vuelvas a vivir.
F                          G                C  Em Am
Quiero que no olvides todo lo que necesito de tu amor
         F            G          C   Em, Am
y en la noche de las noches me veras caer,
F                 G
pidiendo perdón amor!


 Yo quiero el beso perfumadito de tu boquita pintada
que me llene de alegría, que se calme este dolor,
y los efectos que nunca siento, son los rebotes del viento
que calman sueños, amor.

 Yo quiero el beso perfumadito de tu boquita pintada
que me llene de alegría, que se calme este dolor,
y los efectos que nunca siento, son los rebotes del viento,
que calman sueños.

Voy a sacar de vos mi presencia, voy a brillar por mi ausencia
voy a cantarle a la libertad, no quiero verte nunca más.
Quiero escupir todo lo que siento, quiero perderme en tus sueños,
voy a pedirte, el mundo.

 Y los efectos que nunca siento, son los rebotes del viento
que calman sueños, boquitas pintadas,
boquitas pintadas.

Solo:
-------3---3------------------5-5-----------3---3-5/7-8---------
-1-3/5---3----1----------1-3/5-3--1----1-3/5--5--------5^-5-5^-5
-----------------3-2---2-------------2--------------------------
---------------------------------------------------------------
---------------------------------------------------------------
---------------------------------------------------------------


---------------
-3--1----------
------2--------
---------------
---------------
---------------




-------3---3------------------5-5--------------------3---3-5/7-8
-1-3/5---3----1----------1-3/5-3--1--3/5-3-1-3--1-3/5-5---------
-----------------3-2---2----------------------------------------
----------------------------------------------------------------
----------------------------------------------------------------
----------------------------------------------------------------


---------------------------------
-5^-5-5^-5-----------------------
---------------------------------
---------------------------------
---------------------------------
---------------------------------

---------------
-3--1----------
------2--------
---------------
---------------
---------------
uu son las 4:34 de la mañana.. me quede sacando
 y escribiendo la tablatura.. espero q les haya gustado ^^

por dudas: [email protected]  besoo
 

Que te parecio? Calificalo con estrellas!!

Rating: 7.9/10 (82 votos)

Este fichero es trabajo propio de su transcriptor y representa su interpretación personal de la canción. El material contenido en esta página es para exclusivo uso privado, por lo que se prohibe su reproducción o retransmisión, así como su uso para fines comerciales.


Deja tus comentarios:
Letras de canciones | Musica Independiente