Acordes y tablaturas para guitarra

Acordes y Tablaturas
Usuario: Password:

Buscar:
Acordes y Tablaturas >> Letra T >> Acordes de Tranzas >> mori
Acordes de mori, Tranzas

Mori

Tranzas






MORI otra version

Intro:
2 veces 
e|-----3-------3------2--|-----3-------3------2--|
B|-------3-------3-------|--------3------3-------|
G|----------0------0-----|-----------0-----0-----| 
D|-----------------------|-----------------------|  
A|-----------------------|-----3-----------------|
E|-----3-----------------|-----------------------|



Verso:

Y preguntas por mi                  
                e|-----3-------3------2--|
                B|-------3-------3-------|
                G|----------0------0-----|
                D|-----------------------|
                A|-----------------------|
                E|-----3-----------------|
Que como me va
             e|-----3-------3------2--|
             B|--------3------3-------|
             G|-----------0-----0-----|
             D|-----------------------|
             A|-----3-----------------|
             E|-----------------------|
A ver como  tome, tantas cosas que hable
               e|-----3-------3------2--|
               B|-------3-------3-------|
               G|----------0------0-----|
               D|-----------------------|
               A|-----------------------|
               E|-----3-----------------|
De la soledad
            e|-----3-------3------2--|
            B|--------3------3-------|
            G|-----------0-----0-----|
            D|-----------------------|
            A|-----3-----------------|
            E|-----------------------|
Que si estoy bien o mal
                   e|-----0-----------0----|
                   B|--------------0-------|
                   G|-----------0----------|
                   D|--------2-------------|
                   A|----------------------|
                   E|-----0----------------|

Que si puedo reír                 O si puedo
              e|----------------0---------|
              B|-------------3-----3------|
              G|----------3-----------3---|
              D|-------3------------------|
              A|----0---------------------|
              E|--------------------------|
 llorar
      e|---2---------2----------2---3---|
      B|----------3----3-----3------3---|
      G|-------2----------2---------2---|
      D|---0------------------------0---|
      A|--------------------------------|
      E|--------------------------------|



                G
Y preguntas por mí
             C9
por curiosidad 
              G
y quisiera decir que té extraño a rabiar 
                 C9
que ya no puedo mas
             Em
o se me pasara
               A
pero ya no lo sé
                 D   Dsus4
yo ya no siento mas
 

                  
Nota: 'no se confundan con los nombres de los primeros tonos del coro, son de
 referencia, abajo estan escritos, lo mas seguro es que no les suenen, vayan
 escuchando la cancion al mismo tiempo.

                              

CORO:
          
                     G   Gdim7 Gdim
porque ya no estoy aqui, mori
C9                 C9dim7  C9dim    
morí el día que te fuiste así, 
   G   Gdim7 Gdim
de mi no estoy,   
B7                           Em                EmMaj7
camino por las calles sin pensar, oigo sin escuchar,
              Emdim7                Am7            Dsus4  D
abrazo sin sentir soy el único muerto que puede caminar

                 
                     G  Gdim7 Gdim
porque ya no estoy aquí, morí
C9                    C9dim7  Cdim
morí el día en que te fuiste así
    G   Gdim7 Gdim
de mí, no estoy 
 B7                        Em                          EmMaj7   
sólo existe este maldito amor, que es más grande que el sol, 
             Emdim7                   AmMaj7   D
no tiene compasión, no preguntes por mí,,,,,,,,yo ya no estoy aquí.


Intro:
 

Verso2:
                G  Gdim7
Y preguntas por mí, 
  Gdim      C9 Cdim7 
de casualidad,
  Cdim        G              Gdim7
si salió a relucir, una conversación 
  Gdim         C9 Cdim7
como otra normal, 
  Cdim         Em7
si tenía la razón
                A
o si yo estaba mal
                  D  Dsus4
no me puede importar


CORO:
          
                     G   Gdim7 Gdim
porque ya no estoy aqui, mori
C9                 C9dim7  C9dim    
morí el día que te fuiste así, 
   G   Gdim7 Gdim
de mi no estoy,   
B7                           Em                EmMaj7
camino por las calles sin pensar, oigo sin escuchar,
              Emdim7                Am7              Dsus4 D
abrazo sin sentir soy el único muerto que puede caminar

                 
                     G  Gdim7 Gdim
porque ya no estoy aquí, morí
C9                    C9dim7  Cdim
morí el día en que te fuiste así
    G   Gdim7 Gdim
de mí, no estoy 
 B7                        Em                          EmMaj7   
sólo existe este maldito amor, que es más grande que el sol, 
             Emdim7                   AmMaj7    D
no tiene compasión, no preguntes por mí,,,,,,,,yo ya no estoy aquí.

Final
e|-----3-------3------2--|-----3-------3------2--|
B|-------3-------3-------|--------3------3-------| 
G|----------0------0-----|-----------0-----0-----|
D|-----------------------|-----------------------|
A|-----------------------|-----3-----------------|
E|-----3-----------------|-----------------------|
                            rasgueo      harmonico 
e|-----3-------3------2--|-----3--------------------|
B|-------3-------3-------|-----1------------Hn(5)---|
G|----------0------0-----|-----0------------Hn(5)---|Fin
D|-----------------------|-----2------------Hn(5)---|
A|-----------------------|-----3--------------------|
E|-----3-----------------|--------------------------|


Esta es la Intro con bajo, fijense en la afinacion de la 6°cuerda
e|-------3-------3-------2----|-------3-------3-------2-----|
B|----------3-------3---------|----------3-------3----------|
G|-------------0-------0------|-------------0-------0-------|
D|----------------------------|-----------------------------|
A|----------------------------|--3h5--3---------------------|
D|--O/5--5--------------------|-----------------------------|

e|-------3--------3------2----|--------------3------3-----2--|
B|----------3-------3---------|-----------------3-----3------|
G|-------------0-------0------|-------------------0-----0----|
D|----------------------------|------------------------------|
A|--3/5-----------------------|--3/5--2--5---3---------------|
D|-------5--------------------|------------------------------|

Aca les pongo los acordes si es que esta pagina no los reconoce

Acordes:

   654321
C9-x32033
Dsus4-xx0233
Gdim7-300032*
Gdim-300033
C9dim7-x30032
C9dim-x30033
EmMaj7-021000
Emdism7-010000
Am7-002010
AmMaj7-002013
Em7-022030


Que te parecio? Calificalo con estrellas!!

Rating: 5.7/10 (37 votos)

Este fichero es trabajo propio de su transcriptor y representa su interpretación personal de la canción. El material contenido en esta página es para exclusivo uso privado, por lo que se prohibe su reproducción o retransmisión, así como su uso para fines comerciales.


Comentario de ZaNi
comentenme si hay algun error
Deja tus comentarios:
Letras de canciones | Musica Independiente