Acordes y tablaturas para guitarra

Acordes y Tablaturas
Usuario: Password:

Buscar:
Acordes y Tablaturas >> Letra m >> Acordes de marcos barrientos >> Hossana
Tablatura de Hossana, marcos barrientos

Hossana

Marcos barrientos







Intro  piano
tambien lo pueden hacer con la guitarra


 E--------3-2-----------------------------------
 B-0-0-0------------7-5--------5-3----0-0-0-2-3-
 G------------2-2-2------2-2-2------------------   x2


Despues de dos la guitarra se muestra con estos acordes todos con cejilla y diferente pocicion.....solo busquenla
 
 Bm   A   f#   G     x2


          
Levantamos un clamor
                            E-----3-
por sanidad y redención =   B---3--- 
                            G-4-----
Muestranos lo que Tu ves
              
los secretos de Tu corazón.


               
Un pueblo unido pide hoy
                            E-----3-
Tu libertad y salvación =   B---3---
                            G-4----- 
Armanos con Tu valor
                 
lo que deseamos es revolución.


G                         A             G
Que el cielo se parta en dos... inundanos
                        A                 Bm
en el desierto broten rios... vida sopla hoy



Bm                        D
// Hosanna al Rey de Salvación
                     Em
Hosanna al Dios Altisimo
          G            A             Bm
Hosanna, Jesucristo, Jesucristo es Rey //


solo piano............
luego se hace esto en la guitarra muy rapido
antes de iniciar la cancion de nuevo

 E------------------
 B---------9-11/12--
 G-----8-10---------
 D-7-9--------------




Levantamos un clamor
                          E-----------------------------------  
por sanidad y redención   B-12-12-12-12-12-12-12-12-12...-12/10 
                           
Muestranos lo que Tu ves
              
los secretos de Tu corazón.



durante el 2° verso se hace esto q' es lo mismo de la 
introduccion

E--------3-2-----------------------------------
B-0-0-0------------7-5--------5-3----0-0-0-2-3-
G------------2-2-2------2-2-2------------------   x2



Un pueblo unido pide hoy
                            
Tu libertad y salvación    
                            
Armanos con Tu valor
                 
lo que deseamos es revolución.



G                         A             G
Que el cielo se parta en dos... inundanos
                        A                 Bm
en el desierto broten rios... vida sopla hoy



Bm                        D
// Hosanna al Rey de Salvación
                     Em
Hosanna al Dios Altisimo
          G            A             Bm
Hosanna, Jesucristo, Jesucristo es Rey //



Solo.....................................


E-12-12-12-12-12-12-12-10-10-10-------------
B--------------------------------10-10-10-10

 -12-12-12-12-12-12-12-10-10-10-------------
 --------------------------------10-10-10-10

 -12-12-12-12-12-12-12-10-10-10-------------
 --------------------------------10-10-10-10

 -14-14-14-14-14-12-14-15-14-12-12-10-
 -------------------------------------

 -12-12-12-10-10-10-9-9-9----------------
 -------------------------7-7-7-8-8-10-10

 -12-12-12-10-10-10-9-9-9-10-10-12-12-12-12
 ------------------------------------------

 -14-14-14-14-14-14-14-12-14-16-16-16-16-16-16-
 ----------------------------------------------

 -13-16-18-18-18-18-18-18-18---12-10/9-10-12--14/15/14/15/14
 -----------------------------------------------------------


 Hossana, hossana, hossana.........
 estos van con los acordes del coro

  Bm  D  Em  G  A  






Los acordes de esta cancion van todas con cejilla
busquenlas

unas pistas?????????????
 
 Bm : en traste  7 es como hacer F#m 
 A  : en traste  5 como hacer F
 G  : en traste  3 como hacer F
 F# : en traste  2 ps F#
 D  : en traste  5 es como hacer B 
 Em : en traste  7 es como hacer Bm


FACIL.....................





Que te parecio? Calificalo con estrellas!!

Rating: 8.1/10 (291 votos)

Este fichero es trabajo propio de su transcriptor y representa su interpretación personal de la canción. El material contenido en esta página es para exclusivo uso privado, por lo que se prohibe su reproducción o retransmisión, así como su uso para fines comerciales.


Comentario de Driyell...
Buen spero q' les sirva.......... chaooooooo
Deja tus comentarios:
Letras de canciones | Musica Independiente