Patricio Rey Y Sus Redonditos De Ricota, El Pibe De Los Astilleros

INTRO:

(RIFF)

Eduardo "Skay" Beilinson:
Guitarra 1 (Riff):

e|---------------|-------------------|---------------|-------------|--|
B|---------------|-------------------|---------------|-------------|--|
G|-9-9-7-9-7-----|-------------------|-9-9-7-9-7-----|-------------|--|
D|-----------9-9-|-5-7-7-5---5-------|-----------9-9-|-5-7-7-5-----|x2|
A|---------------|---------7---7-5---|---------------|---------7-7-|--|
E|---------------|-----------------7-|---------------|-------------|--|

Eduardo "Skay" Beilinson:
Guitarra 2 (Riff):

E|-7-7-5-7-5-3-3-|-------------------|-7-7-5-7-5-3-3-|-------------|--|
B|---------------|-5-3-3-----3-------|---------------|-5-3-3-------|--|
G|---------------|-------4-2---4-2---|---------------|-------4-----|--|
D|---------------|-----------------5-|---------------|---------2-4-|x2|
A|---------------|-------------------|---------------|-------------|--|
E|---------------|-------------------|---------------|-------------|--|

Daniel "Semilla" Bucciarelli:
Bajo:
g|---------------|-------------------|---------------|-------------|--|
d|-2-2-----------|-0-------0---------|-2-2-----------|-0------2----|x2|
a|---------------|-------------------|---------------|-----2-----0-|--|
E|-------3---3-3-|----------3-3-3----|-------3---3-3-|-------------|--|


Estrofa 1:

Carlos "Indio" Solari:
Voz Principal (Adaptado a Guitarra):

   Em        G     C          D   Em       G      C         D
e|--------0---------------------|------------0----------------|
b|-0-0-0-3---3-0--------------0-|-0-0-0-0--3---3--------------|
g|---------------0-2-0-2-0-2----|-----------------2-0---0-----|
d|------------------------------|---------------------4---4--2|
a|------------------------------|-----------------------------|
E|------------------------------|-----------------------------|

   Em        G     C          D   Em       G      C         D
e|--------0---------------------|---3-0-----------------------|
b|-0-0-0-3---3-0--------------0-|-0-----3--0------------------|
g|---------------0-2-0-2-0-2----|-------------2---2-0---0-----|
d|------------------------------|---------------------4---4--2|
a|------------------------------|-----------------------------|
E|------------------------------|-----------------------------|

Eduardo "Skay" Beilinson:
Guitarra 1 (Acordes):

   Em     G     C     D
e|--0--|--3--|--0--|--2--|--|
b|--0--|--3--|--1--|--3--|--|
g|--0--|--0--|--0--|--2--|--|
d|--2--|--0--|--2--|--0--|x4|
a|--2--|--2--|--3--|-----|--|
E|--0--|--3--|-----|-----|--|

Bajo:

  Em         G        C        D       Em       G        C        D
g|------|---------|-------|---------|------|-0--0--0-|-------|---------|
d|------|---------|-------|-0--0--0-|-2--2-|---------|-------|-0--0--0-|
a|------|---------|-3---3-|---------|------|---------|--3--3-|---------|
E|-0--0-|-3--3--3-|-------|---------|------|---------|-------|---------|

  Em         G        C        D       Em       G        C        D
g|------|---------|-------|---------|------|---------|-------|---------|
d|-2--2-|---------|-------|-0--0--0-|-2--2-|-0--0--0-|-------|---------|
a|------|---------|-3---3-|---------|------|---------|--3--3-|-5--5--5-|
E|------|-3--3--3-|-------|---------|------|---------|-------|---------|

Em             G         C           D
Fue unos meses a Caseros y su strato roja,
Em             G         C           D
se hizo el torbellino que hoy suena en la radio.
Em        G       C        D
La ceniza no caía desde su cigarro
Em             G         C       D
y estaba en sus ojos desarmándote


(RIFF)

Estrofa 2:
Carlos "Indio" Solari:
Voz Principal (Adaptado a Guitarra):

   Em        G     C          D   Em       G      C         D
e|---------0--------0-----------0|-0---3-0--0-0-----0--------|
b|-0-0-0-3---3-3-3----3--3--0-3--|---3----------3-3---0------|
g|-------------------------------|-----------------------2---|
d|-------------------------------|---------------------------|
a|-------------------------------|---------------------------|
E|-------------------------------|---------------------------|

   Em        G     C          D   Em       G      C         D
e|-3-0---------------------------|---3-0---------------------|
b|-----3-0----0---------------0--|-0-----3-0-----------------|
g|---------------2-0-2-0-2-------|-----------2-2-0--2-0---0--|
d|-------------------------------|----------------------4---2|
a|-------------------------------|---------------------------|
E|-------------------------------|---------------------------|

Eduardo "Skay" Beilinson:
Guitarra 1 (Acordes):

   Em     G     C     D
e|--0--|--3--|--0--|--2--|--|
b|--0--|--3--|--1--|--3--|--|
g|--0--|--0--|--0--|--2--|--|
d|--2--|--0--|--2--|--0--|x4|
a|--2--|--2--|--3--|-----|--|
E|--0--|--3--|-----|-----|--|

Daniel "Semilla" Bucciarelli:
Bajo:

  Em         G        C        D       Em       G        C        D
g|------|---------|-------|---------|------|-0--0--0-|-------|---------|
d|------|---------|-------|-0--0--0-|-2--2-|---------|-------|-0--0--0-|
a|------|---------|-3---3-|---------|------|---------|--3--3-|---------|
E|-0--0-|-3--3--3-|-------|---------|------|---------|-------|---------|

  Em         G        C        D       Em       G        C        D
g|------|---------|-------|---------|------|---------|-------|---------|
d|-2--2-|---------|-------|-0--0--0-|-2--2-|-0--0--0-|-------|---------|
a|------|---------|-3---3-|---------|------|---------|--3--3-|-5--5--5-|
E|------|-3--3--3-|-------|---------|------|---------|-------|---------|

Em             G         C           D
Alquiló una rana rubia, tibia y haragana,
Em          G      C       D
se moría de ganas de matarla,
Em   G         C           D
Una linda damita de concordia,
Em             G         C           D
el mas bello fuselaje que jamas lustró.

(RIFF)

(PUENTE)
Carlos "Indio" Solari:
Voz Principal:
e|-------------------------|------------------------|
b|-0-0-0-0-0-0-1-1-1-3-1-0-|-0-0-0----------0-------|
g|-------------------------|-------0--0-0-2---2-0---|
d|-------------------------|----------------------4-|
a|-------------------------|------------------------|
E|-------------------------|------------------------|

e|-------------------------|------------------------|
b|-0-0-0-0-0-0-1-1-1-3-1-0-|-0----------0-----------|
g|-------------------------|---0-0-0--2---0---------|
d|-------------------------|-----------------4--2---|
a|-------------------------|------------------------|
E|-------------------------|------------------------|

Eduardo "Skay" Beilinson:
Guitarra 1 (Acordes):

   Bm         Bm         C          A
e|----------|---------|---------|-----------|--|
b|----------|---------|---------|-----------|--|
g|------4---|-----4---|-----5---|------2----|--|
d|----4---4-|---4---4-|---5---5-|----2---2--|x3|
a|--2-------|-2-------|-3-------|--0--------|--|
E|----------|---------|---------|-----------|--|

Eduardo "Skay" Beilinson:
Guitarra 2 (Distorsion):

  Fill 1          Fill 2        Fill 3
e|-8------------|-5------0----|-7--8--7--7-8-7------|
b|---10---8--7--|----7------0-|---------------------|
g|--------------|-------------|---------------------|
d|--------------|-------------|---------------------|
a|--------------|-------------|---------------------|
E|--------------|-------------|---------------------|

Daniel "Semilla" Bucciarelli:
Bajo:

|-----|-----|-----|-----|
|-----|-----|-----|--0--|
|--2--|--2--|--3--|-----|
|-----|-----|-----|-----|
Bm               C            A     (Fill 1)
  Le hizo un par de promesas imprudentes
Bm               C            A     (Fill 2)
  y así fue que de ella se aburrió.
Bm               C            A     (Fill 3)
  Las minitas aman los payasos
Bm           C  A
  y la pasta de campeón.

(RIFF)

Estrofa 3:



Carlos "Indio" Solari:
Voz Principal (Adaptado a Guitarra):


 Em          G        C       D  Em       G    C       D
e|-----------0-------0---------0--0-0-0---3-0-0-----0----|
b|-0-0-0-0-3---3-3-3---3-3-0-3----------3-------3-3---0--|
g|------------------------------------------------------2|
d|-------------------------------------------------------|
a|-------------------------------------------------------|
E|-------------------------------------------------------|
  Em      C       D      Em     G     C      D
e|-3-0----------------------3-0--------------------------|
b|-----3-0-------------0--------3-0----------------------|
g|---------2-2-0-2-0-2----2---------2-2-2-0---0----------|
d|------------------------------------------4---4-2------|
a|-------------------------------------------------------|
E|-------------------------------------------------------|

Eduardo "Skay" Beilinson:
Guitarra 1 (Acordes):

   Em     G     C     D
e|--0--|--3--|--0--|--2--|--|
b|--0--|--3--|--1--|--3--|--|
g|--0--|--0--|--0--|--2--|--|
d|--2--|--0--|--2--|--0--|x4|
a|--2--|--2--|--3--|-----|--|
E|--0--|--3--|-----|-----|--|

Daniel "Semilla" Bucciarelli:
Bajo:

  Em         G        C        D       Em       G        C        D
g|------|---------|-------|---------|------|-0--0--0-|-------|---------|
d|------|---------|-------|-0--0--0-|-2--2-|---------|-------|-0--0--0-|
a|------|---------|-3---3-|---------|------|---------|--3--3-|---------|
E|-0--0-|-3--3--3-|-------|---------|------|---------|-------|---------|

  Em         G        C        D       Em       G        C        D
g|------|---------|-------|---------|------|---------|-------|---------|
d|-2--2-|---------|-------|-0--0--0-|-2--2-|-0--0--0-|-------|---------|
a|------|---------|-3---3-|---------|------|---------|--3--3-|-5--5--5-|
E|------|-3--3--3-|-------|---------|------|---------|-------|---------|

Em              G         C       D
El pibe de los astilleros nunca se rendía,
Em            G         C       D
tuvo un palacete por un par de días.
Em          C                D
Rapiñaba montado a los containers,
Em             G         C
el maldito amor que tanto miedo da.

Solo de Saxo (Adaptado para viola):

   Em       G      C    D  Em    G        C        D
e|----------8-7-5-------------------------0---0-5-3-0---|
b|-----10~----------5---3---------0-3-0-3---3---------3-|
g|--7---------------------2-0-2-------------------------|
d|------------------------------------------------------|
a|------------------------------------------------------|
E|------------------------------------------------------|

  Em      G     C          D    Em      G      C
e|7-7-7-7-5-3-0-11h12-10----10--15-14----12-10----------|
b|-----------------------12-----------12-------11-10----|
g|---------------------------------------------------12-|
d|------------------------------------------------------|
a|------------------------------------------------------|
E|------------------------------------------------------|

Estrofa 4:

Carlos "Indio" Solari:
Voz Principal (Adaptado a Guitarra):

  Em      G    C     D        Em    G    C      D
e|---------0---0-------------|-0---3-0--0-----0-----------|
b|-0-0-0-3---3---3-3-0---0---|---3--------3-3---0---------|
g|---------------------2-----|--------------------2-------|
d|---------------------------|----------------------------|
a|---------------------------|----------------------------|
E|---------------------------|----------------------------|

 Em       G      C      D     Em     G      C     D
e|-3-0-----------------------|---3-0----------------------|
b|-----3-0--0------------0---|-0-----3-0------------------|
b|-------------2-0-2-0-2-----|-----------2--2-0----0------|
g|---------------------------|-------------------4---4--2-|
d|---------------------------|----------------------------|
E|---------------------------|----------------------------|


Daniel "Semilla" Bucciarelli:
Bajo:

  Em         G        C        D       Em       G        C        D
g|------|---------|-------|---------|------|-0--0--0-|-------|---------|
d|------|---------|-------|-0--0--0-|-2--2-|---------|-------|-0--0--0-|
a|------|---------|-3---3-|---------|------|---------|--3--3-|---------|
E|-0--0-|-3--3--3-|-------|---------|------|---------|-------|---------|

  Em         G        C        D       Em       G        C        D
g|------|---------|-------|---------|------|---------|-------|---------|
d|-2--2-|---------|-------|-0--0--0-|-2--2-|-0--0--0-|-------|---------|
a|------|---------|-3---3-|---------|------|---------|--3--3-|-5--5--5-|
E|------|-3--3--3-|-------|---------|------|---------|-------|---------|

Eduardo "Skay" Beilinson:
Guitarra 1 (Acordes):

   Em     G     C     D
e|--0--|--3--|--0--|--2--|--|
b|--0--|--3--|--1--|--3--|--|
g|--0--|--0--|--0--|--2--|--|
d|--2--|--0--|--2--|--0--|x4|
a|--2--|--2--|--3--|-----|--|
E|--0--|--3--|-----|-----|--|

Em          G          C         D
Fue por una lluvia que realmente moje
Em     G      C         D
(que pusiera fin a su aventura).
Em    G    C        D
Un final feliz para pimpollos,
Em    G      C        C
allí estaba, al fin, acechándolo.

(Riff)

Carlos "Indio" Solari:
Voz Principal:
e|-------------------------|------------------------|
b|-0-0-0-0-0-0-1-1-1-3-1-0-|-0-0-0----------0-------|
g|-------------------------|-------0--0-0-2---2-0---|
d|-------------------------|----------------------4-|
a|-------------------------|------------------------|
E|-------------------------|------------------------|

e|-------------------------|------------------------|
b|-0-0-0-0-0-0-1-1-1-3-1-0-|-0----------0-----------|
g|-------------------------|---0-0-0--2---0---------|
d|-------------------------|-----------------4--2---|
a|-------------------------|------------------------|
E|-------------------------|------------------------|

Eduardo "Skay" Beilinson:
Guitarra 1 (Acordes):

   Bm         Bm         C          A
e|----------|---------|---------|-----------|--|
b|----------|---------|---------|-----------|--|
g|------4---|-----4---|-----5---|------2----|--|
d|----4---4-|---4---4-|---5---5-|----2---2--|x3|
a|--2-------|-2-------|-3-------|--0--------|--|
E|----------|---------|---------|-----------|--|

Eduardo "Skay" Beilinson:
Guitarra 2 (Distorsion):

  Fill 1          Fill 2        Fill 3
e|-8------------|-5------0----|-7--8--7--7-8-7------|
b|---10---8--7--|----7------0-|---------------------|
g|--------------|-------------|---------------------|
d|--------------|-------------|---------------------|
a|--------------|-------------|---------------------|
E|--------------|-------------|---------------------|

Daniel "Semilla" Bucciarelli:
Bajo:

|-----|-----|-----|-----|
|-----|-----|-----|--0--|
|--2--|--2--|--3--|-----|
|-----|-----|-----|-----|

Bm          C             A
Ciertos reyes no viajan en camello,
Bm          C             A
ellos andan al tranco del amor
Bm          C             A
Esos tipos soplan con el viento
Bm          C     A
al rebaño y su temor

(Riff)
Aviso: Este fichero es trabajo propio de su transcriptor y representa su interpretación personal de la canción. El material contenido en esta página es para exclusivo uso privado, por lo que se prohibe su reproducción o retransmisión, así como su uso para fines comerciales.
comentario del colaborador: fue arduo trabajo y con ayuda d un par d tabs de guia se logro... temazo.. gracias a lacuerda.net!

Califica esta canción


Comentarios en Facebook