Enviado por: scalimur
Agrandar Letra
Reducir Letra
Imprimir











Celine Dion, Titanic

e|----3-3-3-3--2-3----3-2-3------6-8-6----------------------------------------|
B|------------------------------------------------------------------------------------|
G|------------------------------------------------------------------------------------|
D|------------------------------------------------------------------------------------|
A|------------------------------------------------------------------------------------|
E|------------------------------------------------------------------------------------|

e|----3-3-3-3--2-3----3-----------3---6--------10--8-7-5--------------------|
B|--------------------------2-------------------2------------------------------------|
G|------------------------------------------------------------------------------------|
D|------------------------------------------------------------------------------------|
A|------------------------------------------------------------------------------------|
E|------------------------------------------------------------------------------------|

e|----7--8--7----5-3-2-3-----3-2-3---5-7-----5-3-2-3-----------------------|
B|------------------------------------------------------------------------------------|
G|------------------------------------------------------------------------------------|
D|------------------------------------------------------------------------------------|
A|------------------------------------------------------------------------------------|
E|------------------------------------------------------------------------------------|
Aviso: Este fichero es trabajo propio de su transcriptor y representa su interpretación personal de la canción. El material contenido en esta página es para exclusivo uso privado, por lo que se prohibe su reproducción o retransmisión, así como su uso para fines comerciales.
comentario del colaborador: La cancion corta de Titanic

Califica esta canción


Comentarios en Facebook