Acordes y tablaturas para guitarra

Acordes y Tablaturas
Usuario: Password:

Buscar:
Acordes y Tablaturas >> Letra r >> Acordes de reyli barba >> Amor del Bueno
Tablatura de Amor del Bueno, reyli barba

Amor del Bueno

Reyli barba






ESTA CANCION VA DEDICADA PARA LA DUEÑA DE MIS CACHETES (TKCM)

Los acordes que se usan son:

	eBGDAE
C	010230
Cmin7	030230
Dm	1320xx
D9	0320xx
F	112331
Am	01220x
Fmaj7	01233x

Éste es el punteo de cada acorde, escucha la canción
para que acoples cada tono en el tiempo exacto (cuesta trabajo, pero vale la pena)

Punteo de estrofas:
     C		      Cmin7		    Dm                D9
e|---0---------------------0--------------|-----------1-----------1------0---------|
B|-------------1----------------3---------|------------------3---------------3-----|
G|----------0---------0------------0------|---------2-----2---------------------2--|
D|------2---------------------------------|----0-----------------------------------|
A|---3------------------------------------|----------------------------------------|
E|----------------------------------------|----------------------------------------|

      F				       C	                      Cmin7
e|------------------------1---------------|----------------------------0-----------|
B|--------------1-------------1-----------|-------------1------------------------3-|
G|---------2----------2-----------2-------|----------0------------0------------0---|
D|------------------------------------3---|------2-------------------------2-------|
A|----------------------------------------|---3------------------------------------|
E|----1-----------------------------------|----------------------------------------|


Punteo de dos acordes del pre-coro:
      Am				       G
e|-----------------0----------------------|----------------------------------------|
B|----------1--------------1--------------|------2---------2---------------2-------|
G|-------2------2------2-------2----------|-----------0-------0---------0-----0----|
D|----2--------------------------3--------|--------------0-------0-----------------|
A|----------------------------------------|----------------------------------------|
E|----------------------------------------|----3-----------------------------------|

        C     Cmin7
Como un cuchillo
        Dm    D9
en la mantequilla
        F
entraste a mi vida
        C     Cmin7
cuando me moría.


        C     Cmin7
Como la luna
        Dm    D9
por la rendija
        F
asi te metiste
        C       Cmin7
entre mis pupilas.


Pre-coro:
     Am
Y asi te fui queriendo a diario
        F                     C Cmin7    G
sin una ley, sin un horario   uuuh  uh  uuuh
     Am
y asi me fuiste despertando
          F                   C Cmin7    G
de cada sueño, donde estabas  tuuu uh  uuuh.



aqui empieza el rasgueo:

coro:
    C            Cmin7
Y nadie lo buscaba
    Dm         D9
y nadie lo planeo asi
      Fmaj7
en el destino estaba
               C
que fueras para mi.


    C            Cmin7
Y nadie le apostaba
    Dm         D9
a que yo fuera tan feliz
       Fmaj7              C
pero cupido se apiado de mi.



aquí otra vez punteada:


     C	         Dm           F	               C Cmin7
Sumbari nooo , sumbari   hey eheh se apiado de mi ...
     C	         Dm               F                          C Cmin7
Uhh uh uhhh , mbari no,   birino, birirbiribire se apiado de mi ...



y aqui un rasgueo leve:

        C     Cmin7
Como la lluvia
        Dm    D9
en pleno desierto
	    F
mojaste de fe mi corazon
	     C     Cmin7
ahogaste mis miedos.

	 C	  Cmin7
Como una dulce voz
      Dm      D9
en el silencio
	F
así nos llego el amor
	 C	Cmin7
amor del bueno.


 Am
Y asi te fui queriendo a diario
        F                     C/Cmin7    G
sin una ley, sin un horario   uuuh  uh  uuuh
     Am
y asi me fuiste despertando
          F                   C/Cmin7    G
de cada sueño, donde estabas  tuuu uh  uuuh.



y aquí rasgueo fuerte:

   C            Cmin7
Y nadie lo buscaba
    Dm         D9
y nadie lo planeo asi
      Fmaj7
en el destino estaba
               C
que fueras para mi.


   C            Cmin7
Y nadie le apostaba
    Dm         D9
a que yo fuera tan feliz

       Fmaj7              C
pero cupido se apiado de mi.

   C            Cmin7
Y nadie le apostaba
    Dm         D9
a que yo fuera tan feliz
       Fmaj7              C   
pero cupido se apiado de mi.  (en esta parte empieza el punteo de las estrofas y FIN)

se apiado de mi


Que te parecio? Calificalo con estrellas!!

Rating: 6.6/10 (75 votos)

Este fichero es trabajo propio de su transcriptor y representa su interpretación personal de la canción. El material contenido en esta página es para exclusivo uso privado, por lo que se prohibe su reproducción o retransmisión, así como su uso para fines comerciales.


Deja tus comentarios:
Letras de canciones | Musica Independiente