Acordes y tablaturas para guitarra

Acordes y Tablaturas
Usuario: Password:

Buscar:
Acordes y Tablaturas >> Letra M >> Acordes de METALLICA >> One
Bajo de One, METALLICA

One

METALLICA






|-----------------4--------------------4-----------------------4--------
|-----------------------------------------------------------------------
|-2--2--2--2---2----2-3-2-----------2----2-2H3-2-------------2---2-2H3--
|-------------------------3---3-0-2---------------3---3-0-2-------------

----------------------------------------------------------7-------------
------------7-5---------------------------------------7------------5----
-2--0----0------7--------------------4-----5-----7-5---5---/7----------
------------------3--3-0-2-3-0----0-2---3-----3-5--------------83---3--

-----------------------------------|
--5------------3---3---------------|
-------------------------------2H3-|
----3-5-3-1------1---1-0-----0-----|

  1,2 VERSES
|-------4--------------------4------------------------------------------
|-----------------------------------------------------------------------
|-2--------3-2-------------2-----2----3-2--------0-2H5--2----2---2H3-2--
|--------------3----3-0-2-----------------3---3-------------------------

------------------------------------------|
---------7-5------------------------------|
-0----0------4--------------------2---2--| 2X's
---------------3----3----0-2-3---0---2----|

|-----------------------------------------------------------------------
|---------------------------------5---6------7------------5----------3--
|--------2-------2-----2-4-2----3---4-----5----5H7----------------------
|-3----5---5-3-2----5--------5---------------------8-/3----3-5-3--1---1

-----------------------------7-----------------------------------------|
-3---3--------2---2------7----------------5----------3---3-------------|
------------2---2---2--5---5---7/----------------------------------2H3-|
---1---1--0-----------------------8--/3----3-5-3-1----1---1-0---0-----|

|-------7------------------------------------------|
|---7--------------5----------3---3--------2---2---|
|-5---5---/7-----------------------------2---2---2-| 3X's
|------------83-----3-5-3-1----1---1--0-----------|

|-----------------------------------------------------------------------
|-----------------------------------------------------------------------
|--------2---------2-------2-4-2----2---4------2-------2-----2-4-2---2-4
|-3----5---5-3--2-----5----------5--------3--5---5-3-2----5--------5----

------------------------------------------------------------------------
------------------------------------------------------------------------
------2--------2-----5-----5-------5-----2---2---2---3---3---3------5---
-3--5---5-3-2-----5----5-5---3-3-3---3-0-------0---0-------1---0-5-5--5-

------------------------------------------------------------------------
------------------------------------------------7-----------------------
-5----------------2---2---2-0-3-3-3-3---3-----5---5-----------5-----2---
---5--3-3-3-5-3-0-------0-------------1---0-5-------5-0-3-3-3---3-0-----

------------------------------------------------------------------------
---------------------------7--------------------------------------------
---2---2---3-3-3---3-----5---5-----------------2---2---2-0--3-3-3-3--3/-
-----0---0-------1---0-5-------5-0-3-3-3-5-3-0-------0--------------1---

------------------------------------------------------------------------
-------7-----------7------------------------------7-----------7---------
-7-7-7---7-0-5-5-5---52----2-0-3-3-3---3/-7-7-7---7-0-5-5-5---5-2----
--------------------------0-----------1---------------------------------

---------------------------------------|
---------------------------------------|
---2-0-2-0-3-3-3-3---3----7------(7)---|
-------------------1---0--0------(0)---|

|---------------------------------|
|---------------------------------|
|-------------7----------------7--| 4X's
|-0-0-0-0-0-0-0----0-0-0-0-0-0-0--|

|----------------------------------------|
|----------------------------------------|
|-------------7--------------------------| 5X's
|-0-0-0-0-0-0-0-------0-0-0-0-0-0-0---1--|

  DARKNESS....... AND THE   LANDMINE....PART
|-----------------------------------------------------------------------
|-----------------------------------------------------------------------
|-------------7-----------------7-----------------7---------------------
|-0-0-0-0-0-0-0-----0-0-0-0-0-0-0-----0-0-0-0-0-0-0-----0-0-0-0-0-0-0--1

------------------------------------------------------------------------
------------------------------------------------------------------------
-------------7-----------------7------------------7---------------------
-0-0-0-0-0-0-0-----0-0-0-0-0-0-0------0-0-0-0-0-0-0-----0-0-0-0-0-0-0--1

------------------------------------------------------------------------
------------------------------------------------------------------------
-------------7------------------7/8---------------5----------------5/8--
-0-0-0-0-0-0--------0-0-0-0-0-0-------0-0-0-0-0-0-------0-0-0-0-0-0-----

--------------------------------------------------------------|
--------------------------------------------------------------|
------------7--------------7/8-------------5--------------2---|
-0-0-0-0-0-0----0-0-0-0-0-0-----0-0-0-0-0-0----0-0-0-0-0-0--1-|

HELL!....................................
|-----------------------------------------------------------------------
|-----------------------------------------------------------------------
|-------------2--------------2--------3---------------2----------------2
|-0-0-0-0-0-0----0-0-0-0-0-0----0-0-0-----0-0-0-0-0-0-----0-0-0--0-0-0--

------------------------------------------------------------------------
------------------------------------------------------------------------
--------3---------------2---------------2---------3---------------2-----
--0-0-0-----0-0-0-0-0-0-----0-0-0-0-0-0-----0-0-0-----0-0-0-0-0-0-------

------------------------------------------------------------------------
------------------------------------------------------------------------
--------------2---------3----7-7-7-7-7-7-7----7-7-7---7-7-7-7---7-7-7-7-
--0-0-0-0-0-0-----0-0-0------0-0-0-0-0-0-0----0-0-0---0-0-0-0---0-0-0-0-

------------------------------------------------|
------------------------------------------------|
-7-7-7-7-7-7-7---7-7-7-7-7-7-7---7-7-7-7-7-7-7--|
-0-0-0-0-0-0-0---0-0-0-0-0-0-0---0-0-0-0-0-0-0--|

  GUITAR SOLO
|--------------------------------------------|
|--------------------------------------------|
|-------------2----------------2----------3--| 4X's
|-0-0-0-0-0-0------0-0-0-0-0-0------0-0-0----|

|-----------------------------------------------------------------------
|-----------------------------------------------------------------------
|-7-7-7-7-7-7-7---7-7-7---7-7-7-7---7-7-7-7-7-7---------------7-----7---
|-0-0-0-0-0-0-0---0-0-0---0-0-0-0---0-0-0-0-0-0---0-0-0-0-0-0-0-----0---

------------------------------------------------------------------------
------------------------------------------------------------------------
-----------------------------------------------------5--5---------------
-0-0-0-0-0-0-0---1---3-3-3-3-3-3-3---3---3-3-3-3-3-3-------3-3-3-3-3-3-3

------------------------------------------------------------------------
------------------------------------------------------------------------
-5---5---------------5----6---------------------------------------------
---------3-3-3-3-3-3----------1-1-1-1-1-1-1---1---0-0-3---0-0-3---0-0-3-

------------------------------------------------------------------------
------------------------------------------------------------------------
----------------------------------------------------------------5-5-5-5-
-0-0-3---1-1-1-1-1-1-1---1---1-1-1-1-1-1-1---1---3-3-3-3-3-3-3----------

------------------------|
------------------------|
-5-5-4-4-4-3-3-3-2-2-2--|
------------------------|

|------------------------------------------|
|------------------------------------------|
|-------------2---------------2---------3--| 4X's
|-0-0-0-0-0-0-----0-0-0-0-0-0-----0-0-0----|

|------------------------------------------------|
|------------------------------------------------|
|-7-7-7-7-7-7-7---5-5-5-5-5-5-4-4-4-3-3-3-2-2-2--|
|------------------------------------------------|

|------------------------------------------|
|------------------------------------------|
|-------------2---------------2---------3--| 13X's
|-0-0-0-0-0-0-----0-0-0-0-0-0-----0-0-0----|

|-----------------------------------------------------------------------
|-----------------------------------------------------------------------
|---------------------------------------------2-----------------2-------
|-0-0-3---0-0-3---0-0-3---0-0-3---0-0-0-0-0-0-----0-0-0---0-0-0----0-0-0

------------------------------------------------------------------------
------------------------------------------------------------------------
-3---------------------------------------7---7--------------------------
-----0-0-3---0-0-3---0-0-3---0-0-0-0-0-0-0---0---1-1-1---1-1-1---3-3-3--

-------|-$----|--------------------------------------------|
-------|--%---|--------------------------------------------|
-------|---&--|---------------2---------------2---------3--|
-3-3-3-|----%-|---0-0-0-0-0-0-----0-0-0-0-0-0-----0-0-0----|

|--------------------------------------|
|--------------------------------------|
|-7-7-7-7-7-7-7--19-19-19-19-19-19-19--|
|-0-0-0-0-0-0-0---0--0--0--0--0--0--0--|


Que te parecio? Calificalo con estrellas!!

Rating: 8.5/10 (297 votos)

Este fichero es trabajo propio de su transcriptor y representa su interpretación personal de la canción. El material contenido en esta página es para exclusivo uso privado, por lo que se prohibe su reproducción o retransmisión, así como su uso para fines comerciales.


Deja tus comentarios:

Letras de METALLICA
Letras de canciones | Musica Independiente