Enviado por: izzy stradlin
Agrandar Letra
Reducir Letra
Imprimir

Acordes:
½ tono
| +0 |
½ tono
||
Volver

Otras Versiones de Have You Ever Really Love A Woman:









Bryan Adams, Have You Ever Really Love A Woman

 INTRO:

|------------|-------------|-----------|
|------------|-------------|-----1-----|
|-0---2-3-2--|---0-2-3-2---|---0---3-2-|
|------------|-------------|-----------|
|------------|-------------|-----------|
|------------|-------------|-----------|

To really love A 
Eb             Cm                       D
woman, to understand her, you've got to know her deep inside
Bb                            F
Hear every thought, see every dream, and give her wings when she wants to fly
              Cm                                  D
Then when you find yourself lying helpless in her arms, you know you really
C      G
love a woman

coro:
G                                                     D
When you love a woman, you tell her that she's really wanted.
 D                                                  G
When you love a woman, you tell her that she's the one
G                   Em7                         Am7 D Am7 D
She needs somebody, to tell her that it's gonna last forever
{2nd}[She needs somebody, to tell her that you'll always be together]
   Am7                  D         Am7                 D       G
So tell me have you ever really...really, really ever loved a woman 

[IGUAL Á PRIMEIRA PARTE]

To really love a woman, let her hold you,
till you know how she needs to be touched
You've got to breathe her, really taste her
till you can feel her in your blood
And when you can see your unborn children in her eyes
you know you really love a woman


You've got to
Eb                                            G
give her some faith, hold her tight, a little tenderness
G
you've got to treat her right
D                                             G
She will be there for you taking good care of you

You really gotta love your woman

*SOLO*

             Cm                                  D
And when you find yourself lying helpless in her arms,
                    C      G
you know you really love a woman

 3X

coro Final, 
E|------------------------|------------------------------------------------||
B|------0-1/3/7-5-3-31-0-|0---------------1-0-----------------------------||
G|------------------------|----2---0---0-------2-2-----2-420---------------||
D|------0-2/4/7-5-4-42-0-|0-------------4----0----------------------------||
A|------------------------|----3---2---2-0---------------------------------||
E|3-----------------------|--------------------------3---------------------||
  woman? 
Aviso: Este fichero es trabajo propio de su transcriptor y representa su interpretación personal de la canción. El material contenido en esta página es para exclusivo uso privado, por lo que se prohibe su reproducción o retransmisión, así como su uso para fines comerciales.

Califica esta canción


Comentarios en Facebook