Acordes y tablaturas para guitarra

Acordes y Tablaturas
Usuario: Password:

Buscar:
Acordes y Tablaturas >> Letra d >> Acordes de de saloon >> para ti
Acordes de para ti, de saloon

Para ti

De saloon






am.c.d.em.g.
Bueno esta es mi primera cansion por sacar
y espero qe les guste!
dudas contactenme!
 
D        C      Am
Puedes hacer conmigo
            D              G
lo que tu quieras, deveras lo digo.
             C            Am             D
si se que le temes como todos a la soledad.


                  C       Am
Y ahora quieres hablar conmigo,
         D               G
nada de amor solo de amigos.
           C         Am                D
vienes a decirme que olvidaste nuestra canción.





             C     Am
Pero es para ti mi vida,
         D                  G
calmar tu dolor, secar tus heridas.
         C              Am               D
y puedo cantarla para siempre si es para ti.



         C       Am
Puedes jugar conmigo
        D              G
mi corazón esta de testigo
                 C          Am                  D
yo se que en el fondo, solo quieres un poco de amor.

                    C   Am
Y ahora quieres volver conmigo
           D                 G
matar el dolor, ganarle al destino
             C             Am               D
y quieres pedirme que te cante nuestra canción.




            C        Am
Porque es para ti mi vida,
            D                 G
calmar tu dolor, secar tus heridas.
              C           Am             D
y puedo cantarla para siempre si es para ti.

          C          Am
Pero es para ti mi vida,
            D                  G
calmar tu dolor, secar tus heridas.
            C             Am             D
y puedo cantarla para siempre si es para ti.



E------------------------------------------------|
A------------------------------------------------|
D------------------------------------------------|
G---5---5---5-------------5---5---5--------------|
B-----6---5-----------------6---5----------------|
e---------3----5-5-6-5-3---------3---3-----------|


E---------------------------------------------|
A----3-3-3------------------------------------|
D----5-5-5------------------------------------|
G----5-5-5------------------------------------|
B----5-5-5----------10-10-10---10-7-----------|
e----3-3-3-10-8-7-8----------7----------------|


E-----------------------------------|
A-----------------------------------|
D-----------------------------------|
G-----------------------------------|
B-----------------10-10-10----10-7--|
e-----10-10-8-7-8-----------7-------|


E-------------------------------------------------------------|
A-------------------------------------------------------------|
D-------------------------------------------------------------|
G-------------------------------------------------------------|
B--------------10-10-10---10/----------------10-10-10---10-7--|
e-----10-8-7-8----------7-----10-7-10-7-10-7----------7-------|



EN ESTA PARTE SIGUE TOCANDO EL PUNTEO INICIAL



Pero es para ti mi vida,
calmar tu dolor, secar tus heridas.
y puedo cantarla para siempre si es para ti.



D     C   Am    D
parararam pararam
D     C   Am    D
parararam pararam
D     C   Am    D
parararam pararam
    Em         D
pararam pararam


D     C   Am    D
parararam pararam
D     C   Am    D
parararam pararam
D     C   Am    D
parararam pararam
    Em         D


PARTE ACUSTICA DEL FINAL

D     C   Am    D
parararam pararam
D     C   Am    D
parararam pararam
D     C   Am    D
parararam pararam
    Em         D
pararam pararam
 

Que te parecio? Calificalo con estrellas!!

Rating: 6.3/10 (61 votos)

Este fichero es trabajo propio de su transcriptor y representa su interpretación personal de la canción. El material contenido en esta página es para exclusivo uso privado, por lo que se prohibe su reproducción o retransmisión, así como su uso para fines comerciales.


Deja tus comentarios:
Letras de canciones | Musica Independiente