Enviado por: NUÑEZ><
Agrandar Letra
Reducir Letra
Imprimir






Victor Y Leo, Nada Es Normal

------------------------0-----------2---------------------------------
--0h1p0--------------1---1--1------3-3--------------------------------
--------0-----0-----2-2---2--2----2---2-------------------------------
----------0h2------2---2------2--0------------------------------------
------------------0---------------------------------------------------
----------------------------------------------------------------------

----------------------------------------------------------------------
--0h1p0---------------0-------0-------0-------------------------------
--------0-----0--------0-----0-0-------0------------------------------
----------0h2-------0---0---0---0---0---0-----------------------------
-------------------2-------2-------2----------------------------------
------------------3---------------3-----------------------------------

------------------------0-----------2---------------------------------
--0h1p0--------------1---1--1------3-3--------------------------------
--------0-----0-----2-2---2--2----2---2-------------------------------
----------0h2------2---2------2--0------------------------------------
------------------0---------------------------------------------------
----------------------------------------------------------------------

---------------------------------------3------------------------------
--0h1p0---------------0-----1----1-----3------------------------------
--------0-----0--------0------0---0----0-----------------------------
----------0h2-------0---0------0---0---0------------------------------
-------------------2--------3----------2------------------------------
------------------3--------------------3------------------------------
Aviso: Este fichero es trabajo propio de su transcriptor y representa su interpretación personal de la canción. El material contenido en esta página es para exclusivo uso privado, por lo que se prohibe su reproducción o retransmisión, así como su uso para fines comerciales.

Califica esta canción


Comentarios en Facebook