Enviado por: german g
Agrandar Letra
Reducir Letra
Imprimir

Acordes:
½ tono
| +0 |
½ tono
||
Volver

Otras Versiones de En Tu luz:




En espiritu y En verdad, En Tu luz

Primera parte
E--------------------------------------------------
A-------------------------------------------------- esto se
D-------------------------------------------------- repite
G-------------------------------------------------- 3 veces
B--5--5--5-----------------------------------------
e-----------7--7--7--5--5--5--4--4--4--4[p5]--4--0-

Segunda parte
E-----------------------------------
A-----------------------------------
D-----------------------------------
G-----------------------------------
B--------------------------------4--
e--0--2--2--2--0--0--0--4--4--4-----



E
Tan consumidos por tu amor
                               C#m             A 
Que hemos perdido el sentido de nuestro alrededor
E
Ya nada nos puede deslumbrar
                     C#m             A 
Nada en este mundo se te puede comparar
B/D#      C#m   B         E
Nadie como Tú, nadie como Tú
B/D#      C#m   B        A      E
Nadie como Tú, nadie como Tú Jesús

          CORO:
E
Eres nuestra herencia,
B
Más que suficiente,
A           C#m      B
Nuestro Redentor y Rey, Jesús
E
Muestra tu camino
B
Y andaremos en tu Luz,
A                  C#m B
A la Luz de tu Verdad

         PUENTE:
C#m                  B
En Tu luz vemos la luz
                     A 
En Tu luz vemos la luz
                   C#m  B
En Tu luz vemos la luz

MMM.....
Aviso: Este fichero es trabajo propio de su transcriptor y representa su interpretación personal de la canción. El material contenido en esta página es para exclusivo uso privado, por lo que se prohibe su reproducción o retransmisión, así como su uso para fines comerciales.
comentario del colaborador: JAJAJAJ

Califica esta canción


Comentarios en Facebook