Enviado por: ÑENS
Agrandar Letra
Reducir Letra
Imprimir

Acordes:
½ tono
| +0 |
½ tono
||
Volver





Los pericos, RUNAWAY

Intro: D-A-E-F#- [Bis]


INTRO: X2
|----------------------------------------------------------|
|----------------------------------------------------------|
|-7-7-------7--6-6-------6---------------------------------|
|------7------------7-------9-9--7--6----------------------|
|--------9------------7----------------9-9---7-9-----------|
|------------------------------------------9---------------|






D         A  E                F#m    D
Cuidame bien, pues lo mio es serio
             A  E                  F#m
Quiero que estes,   a mi lado esta vez

D        A   E                 F#m
Voy a fumar,    mientras te espero
D         A  E              F#m
Voy a formar, un espacio mejor


Coro:
D              A    E  Bm-      D
Run, run, run, runaway, away 
               A    E  Bm
Run, run, run, runaway, away

D           A  E             F#m
Voy a escribir con nubes tu nombre
D        A  E            F#m
Voy a soñar, con tu caracol

D        A  E               F#m
Voy a pedir, que nunca te vallas
D              A  E                  (F#m
Y quiero escuchar, mas palabras de amor

Coro...

OTRA VEZ INTRO X2
|----------------------------------------------------------|
|----------------------------------------------------------|
|-7-7-------7--6-6-------6---------------------------------|
|------7------------7-------9-9--7--6----------------------|
|--------9------------7----------------9-9---7-9-----------|
|------------------------------------------9---------------|



D         A  E                 F#m
Cuidame bien, que siempre me pierdo
D             A  E               F#m
Quiero que estes, a mi lado esta vez

D        A  E               F#m
Voy a tomar, tu mano en mi mano
D        A  E            F#m
Para formar un espacio mejor

Coro...

Y TERMINAR CON EL INTRO  
Aviso: Este fichero es trabajo propio de su transcriptor y representa su interpretación personal de la canción. El material contenido en esta página es para exclusivo uso privado, por lo que se prohibe su reproducción o retransmisión, así como su uso para fines comerciales.
comentario del colaborador: ESPERO QUE LES GUSTE

Califica esta canción


Comentarios en Facebook