Enviado por: SAVITO
Agrandar Letra
Reducir Letra
Imprimir











La Mancha De Rolando, Arde La Ciudad

E|-----------------------------------
B|-----1--------0-------1-------1----
G|----0-0------0-0-----2-2-----2-2---
D|-—-2---2—---0---0---2---2---3---3--
A|-3------3-2------2-0-----0-3-----3-
E|-----------------------------------

E|-----------------------------------------|
B|----1-------0--------1---1---1-----------|
G|---0-0-----0-0------2-2---2--------------|
D|--2---2---0---0----2---2---2-------------|
A|-3-----3-2-----2-0-----------------0-0-0-|
E|-----------------------------------------|

C          G          Am
Tu equipo volvió a ganar
C          G          Am       
te prendieron mil bengalas hoy
C       G       Am         F
la banda grita, tu nombre y ves
C       G        F
como la popular se va a caer
Dm                      G 
Pero tu estrella no está más
Dm                 G    F
Se la llevó, la mañana Ooooohh!!

  ESTRIBILLO
C            G      Am        F
Arde la ciudad, llueve en tu mirada gris
C             G        Am
la gente festeja y vuelve a reir.
C             G      Am          F  
Pero este carnaval, hoy no te deja dormir
C             G      Am  
mires donde mires ella está ahí.

C          G         Am
Tu vida siempre fue asi
C          G         Am    
te da y te quita por nada.
C                G    Am     F
Y aunque estés solo, sin corazón
C       G               Am
ahora tenes que seguir, la función.
Dm                  G 
Y es una fiesta lo de hoy
Dm                  G      F 
donde se junta la hinchada Ooooohh

ESTRIBILLO x2

Sólo de guitarra



"no importa la calidad de la guitarra, sino la calidad de lo que hagamos con ella"
Aviso: Este fichero es trabajo propio de su transcriptor y representa su interpretación personal de la canción. El material contenido en esta página es para exclusivo uso privado, por lo que se prohibe su reproducción o retransmisión, así como su uso para fines comerciales.

Califica esta canción


Comentarios en Facebook