Acordes y tablaturas para guitarra

Acordes y Tablaturas
Usuario: Password:

Buscar:
Acordes y Tablaturas >> Letra S >> Acordes de Saratoga >> Sigues estando (en mi vida)
Tablatura de Sigues estando (en mi vida), Saratoga

Sigues estando (en mi vida)

Saratoga






0:01 Intro teclado

Eb|-14--12--10--8--7--7--5--3--2-3-5-7|
Bb|---0---0---0--0--0--0--0--0--------|
Gb|----0---0---0--0--0--0--0--0-------| X4
Db|-----------------------------------|
Ab|-----------------------------------|
Eb|-----------------------------------|

Lejos,
Nos separo el viento del destino
Siento,
Que en la distancia aun estas muy cerca

Sabes que no quiero verte llorar otra vez, no,
Quiero luchar y que juntos volvamos ha estar
¿Cuando volverán aquellos momentos?
Siento que me estoy desvaneciendo sin ti
Y sigues estando (en mi vida)

1:10 Intro Guitarra

Eb|-----------------------------------------|
Bb|-----------------------------------------|
Gb|-----------------------------------------|
Db|-------2-4-------4-5-------5-7-------7-9-|
Ab|-----------------------------------------|
Eb|-0-0-0-----0-0-0-----0-0-0-----0-0-0-----|


1.13

Eb|-----------------------------------------|
Bb|-----------------------------------------|
Gb|-----------------------------------------|
Db|-------2-4-------4-5-------5-7-------7-9-|
Ab|-2-2-2-----2-2-2-----2-2-2-----2-2-2-----|
Eb|-----------------------------------------|


1:17

Eb|-----------------------------------------|
Bb|-----------------------------------------|
Gb|-----------------------------------------|
Db|-------2-4-------4-5-------5-7-------7-9-|
Ab|-----------------------------------------|
Eb|-0-0-0-----0-0-0-----0-0-0-----0-0-0-----|


1:21

Eb|-----------------------------------------|
Bb|-----------------------------------------|
Gb|-----------------------------------------|
Db|-------2-4-------4-5-------5-7-------7-9-|
Ab|-2-2-2-----2-2-2-----2-2-2-----2-2-2-----|
Eb|-----------------------------------------|



1:25

Eb|---------------------------------------------------|
Bb|---------------------------------------------------|
Gb|---------------------------------------------------|
Db|-----------2------------2------------2------------2|
Ab|-0-0-0-0-0-0--0-0-0-0-0-0--0-0-0-0-0-0--0-0-0-0-0-0|
Eb|---------------------------------------------------|

Noches en vela me atrapan en la soledad


1:29

Eb|------------------------------------------------------------|
Bb|------------------------------------------------------------|
Gb|------------------------------------------------------------|
Db|------------------------------------------------------------|
Ab|-----------2-----------------2-----------2-----------------2|
Eb|-0-0-0-0-0-0-0-0-0-0-0-0-0-0-0-0-0-0-0-0-0-0-0-0-0-0-0-0-0-0|


1:33

Eb|---------------------------------------------------|
Bb|---------------------------------------------------|
Gb|---------------------------------------------------|
Db|-----------2------------2------------2------------2|
Ab|-0-0-0-0-0-0--0-0-0-0-0-0--0-0-0-0-0-0--0-0-0-0-0-0|
Eb|---------------------------------------------------|

Intento olvidar el pasado y vivir sin tu amor


1:37

Eb|------------------------------------------------------------|
Bb|------------------------------------------------------------|
Gb|------------------------------------------------------------|
Db|------------------------------------------------------------|
Ab|-----------2-----------------2-----------2-----------------2|
Eb|-0-0-0-0-0-0-0-0-0-0-0-0-0-0-0-0-0-0-0-0-0-0-0-0-0-0-0-0-0-0|


1:41

Eb|----------|
Bb|----------|
Gb|----5~----|
Db|-5--------|
Ab|-3--------|
Eb|----------|

El tiempo no curo la herida en mi corazón


1:44

Eb|------------------------------------------------------------|
Bb|------------------------------------------------------------|
Gb|------------------------------------------------------------|
Db|------------------------------------------------------------|
Ab|-----------2-----------------2-----------2-----------------2|
Eb|-0-0-0-0-0-0-0-0-0-0-0-0-0-0-0-0-0-0-0-0-0-0-0-0-0-0-0-0-0-0|



1:48

Eb|----------|
Bb|----------|
Gb|----5~----|
Db|-5--------|
Ab|-3--------|
Eb|----------|

Siento que me estoy desvaneciendo sin ti


1:52

Eb|------------------------------------------------------------|
Bb|------------------------------------------------------------|
Gb|------------------------------------------------------------|
Db|------------------------------------------------------------|
Ab|-----------2-----------------2-----------2-----------------2|
Eb|-0-0-0-0-0-0-0-0-0-0-0-0-0-0-0-0-0-0-0-0-0-0-0-0-0-0-0-0-0-0|


1:56

Eb|-----------|
Bb|-----------|
Gb|-----------|
Db|-5---------|
Ab|-3---5---7-|
Eb|-----3---5-|

Por que sigues estando (en mi vida)



2:04 Intro Teclado

Eb|-14--12--10--8--7--7--5--3-2-3-5-7|
Bb|---0---0---0--0--0--0--0--0-------|
Gb|----0---0---0--0--0--0--0--0------| X4
Db|----------------------------------|
Ab|----------------------------------|
Eb|----------------------------------|

En mi vida


2:19 Solo Guitarra

Eb|--------------10~--8~--7~--5~--7~--|
Bb|--5~--7~--8~-----------------------|
Gb|-----------------------------------|
Db|-----------------------------------|
Ab|-----------------------------------|
Eb|-----------------------------------|


2:27

Eb|--------------10~--8~--7~--12~--14~--|
Bb|--5~--7~--8~-------------------------|
Gb|-------------------------------------|
Db|-------------------------------------|
Ab|-------------------------------------|
Eb|-------------------------------------|


2:35
Eb|----------|
Bb|----------|
Gb|----5~----|
Db|-5--------|
Ab|-3--------|
Eb|----------|

Cuando acabara este silencio


2:38

Eb|------------------------------------------------------------|
Bb|------------------------------------------------------------|
Gb|------------------------------------------------------------|
Db|------------------------------------------------------------|
Ab|-----------2-----------------2-----------2-----------------2|
Eb|-0-0-0-0-0-0-0-0-0-0-0-0-0-0-0-0-0-0-0-0-0-0-0-0-0-0-0-0-0-0|


2:42

Eb|----------|
Bb|----------|
Gb|----5~----|
Db|-5--------|
Ab|-3--------|
Eb|----------|

Siento que me estoy desvaneciendo sin ti


2:47

Eb|------------------------------------------------------------|
Bb|------------------------------------------------------------|
Gb|------------------------------------------------------------|
Db|------------------------------------------------------------|
Ab|-----------2-----------------2-----------2-----------------2|
Eb|-0-0-0-0-0-0-0-0-0-0-0-0-0-0-0-0-0-0-0-0-0-0-0-0-0-0-0-0-0-0|


2:50


Eb|-----------|
Bb|-----------|
Gb|-----------|
Db|-5---------|
Ab|-3---5---7-|
Eb|-----3---5-|

Por que Sigues Estando (en mi vida)


2:58

Eb|-----------------------------------------|
Bb|-----------------------------------------|
Gb|-----------------------------------------|
Db|-------2-4-------4-5-------5-7-------7-9-|
Ab|-----------------------------------------|
Eb|-0-0-0-----0-0-0-----0-0-0-----0-0-0-----|



3:02

Eb|-----------------------------------------|
Bb|-----------------------------------------|
Gb|-----------------------------------------|
Db|-------2-4-------4-5-------5-7-------7-9-|
Ab|-2-2-2-----2-2-2-----2-2-2-----2-2-2-----|
Eb|-----------------------------------------|

Sueños de libertad


3:06

Eb|-----------------------------------------|
Bb|-----------------------------------------|
Gb|-----------------------------------------|
Db|-------2-4-------4-5-------5-7-------7-9-|
Ab|-----------------------------------------|
Eb|-0-0-0-----0-0-0-----0-0-0-----0-0-0-----|

En mi vida


3:09

Eb|-----------------------------------------|
Bb|-----------------------------------------|
Gb|-----------------------------------------|
Db|-------2-4-------4-5-------5-7-------7-9-|
Ab|-2-2-2-----2-2-2-----2-2-2-----2-2-2-----|
Eb|-----------------------------------------|

Rodeando tu Vida


3:12

Eb|-----------------------------------------|
Bb|-----------------------------------------|
Gb|-----------------------------------------|
Db|-------2-4-------4-5-------5-7-------7-9-|
Ab|-----------------------------------------|
Eb|-0-0-0-----0-0-0-----0-0-0-----0-0-0-----|

En mi vida


3:17

Eb|-----------------------------------------|
Bb|-----------------------------------------|
Gb|-----------------------------------------|
Db|-------2-4-------4-5-------5-7-------7-9-|
Ab|-2-2-2-----2-2-2-----2-2-2-----2-2-2-----|
Eb|-----------------------------------------|

Sueños de libertad


3:21

Eb|-----------------------------------------|
Bb|-----------------------------------------|
Gb|-----------------------------------------|
Db|-------2-4-------4-5-------5-7-------7-9-|
Ab|-----------------------------------------|
Eb|-0-0-0-----0-0-0-----0-0-0-----0-0-0-----|

En mi vida


3:25

Eb|-----------------------------------------|
Bb|-----------------------------------------|
Gb|-----------------------------------------|
Db|-------2-4-------4-5-------5-7-------7-9-|
Ab|-2-2-2-----2-2-2-----2-2-2-----2-2-2-----|
Eb|-----------------------------------------|

Tu alma y la mía


3:29

Eb|-----------------------------------------|
Bb|-----------------------------------------|
Gb|-----------------------------------------|
Db|-------2-4-------4-5-------5-7-------7-9-|
Ab|-----------------------------------------|
Eb|-0-0-0-----0-0-0-----0-0-0-----0-0-0-----|

En tu mirar


3:33

Eb|-----------------------------------------|
Bb|-----------------------------------------|
Gb|-----------------------------------------|
Db|-------2-4-------4-5-------5-7-------7-9-|
Ab|-2-2-2-----2-2-2-----2-2-2-----2-2-2-----|
Eb|-----------------------------------------|

No llores mas


3:37

Eb|-----------------------------------------|
Bb|-----------------------------------------|
Gb|-----------------------------------------|
Db|-------2-4-------4-5-------5-7-------7-9-|
Ab|-----------------------------------------|
Eb|-0-0-0-----0-0-0-----0-0-0-----0-0-0-----|

Lejos de aquí


3:41

Eb|-----------------------------------------|
Bb|-----------------------------------------|
Gb|-----------------------------------------|
Db|-------2-4-------4-5-------5-7-------7-9-|
Ab|-2-2-2-----2-2-2-----2-2-2-----2-2-2-----|
Eb|-----------------------------------------|


Que te parecio? Calificalo con estrellas!!

Rating: 6.9/10 (40 votos)

Este fichero es trabajo propio de su transcriptor y representa su interpretación personal de la canción. El material contenido en esta página es para exclusivo uso privado, por lo que se prohibe su reproducción o retransmisión, así como su uso para fines comerciales.


Deja tus comentarios:
Letras de canciones | Musica Independiente