Acordes y tablaturas para guitarra

Acordes y Tablaturas
Usuario: Password:

Buscar:
Acordes y Tablaturas >> Letra K >> Acordes de Kudai >> Llevame (acustico y electrica)
Tablatura de Llevame (acustico y electrica), Kudai

Llevame (acustico y electrica)

Kudai






                           Versión (Eléctrico)
                           ===================
Esta canción es chida no sé por qué no la sacaron en la versión original

Que les sirva de algo...

TITULO:     Llévame

                       ACORDES UTILIZADOS EN ESTA ROLA
                      =================================

   Gm         D#           A#          D
  ======/    x=====/     ======/     ======/
  ||||||     ||||||      oooooo      ||||||
  ||||||     ||||||      ||||||      |||o|o
  oooooo     oooooo      ||ooo|      ||||o|
  ||||||     ||||o|      ||||||      ||||||
  |oo|||     ||o|||      ||||||      ||||||
  ||||||     |o||||      ||||||      ||||||

   Am          F           C           E
  ======/    ======/     ======/     ======/
  ||||o|     oooooo      ||||o|      |||o||
  ||oo||     |||o||      ||o|||      |oo|||
  ||||||     |oo|||      |o||||      ||||||
  ||||||     ||||||      ||||||      ||||||
  ||||||     ||||||      ||||||      ||||||

El teclado el intro lo puedes hacer
                   Gm      D#      A#      D
E |----------------------------------------2----|
B |----4--3--------3.......4---3---3------------|
G |--3----------2--------------------------2----|
D |----------3---------------------3------------|
A |---------------------------------------------|
E |---------------------------------------------|

Intro: Entra la guitarra en 5tas:
     Gm    -    D#    -    A#   -   D
E |-----------------------------------------------|
B |-----------------------------------------------|
G |--------------88888888---------------77777777--|
D |--55555555----88888888----88888888---77777777--|hasta el solo
A |--55555555----66666666----88888888---55555555--|
E |--33333333----------------66666666-------------|

La Segunda Guitarra en acústico:
(A#)
Mírame,
                      (Gm)
Quien sabe a dónde llegare
(A#)
Tómame,
                       (D)
No hay suelo ya donde caer

Coro:
(Gm)
Ven
(D#)        (A#)
Llévame del dolor
        (D)                (Gm)
Que está oscuro y no oigo tu voz
      (D#)           (A#)
Solo quiero respirar
                      (D)
Que la noche me va a matar

2 Verso:
Tómame,
Que el mundo se vino a los pies
Llévame
Que hoy ya no me quiero esconde

Coro:
Ven,
Llévame del dolor
Que está oscuro y no oigo tu voz
Solo quiero respirar
Que la noche me va a matar
Dame un beso
Algo que me haga al fin regresar
Y llorar en tus brazos al final
Que aún hay tiempo para escapar

Efecto de Teclado:

E |-----15-----------15----------|
B |------------------------------|
G |-----------12------------12---|
D |------------------------------|
A |------------------------------|
E |------------------------------|

Solo:

E |------------------------------------------14------------|
B |-------------------------4------------------------------|
G |---------------------5b6---5-5b6-3-5p3----11--12-12s14--|
D |---5--7--8--7--7--8--------------------5----------------|
A |------------5-------------------------------------------|
E |---3--5--6-----5--6-------------------------------------|

E |-------------------------------------------|
B |---16b19.....--13-16b17--------------------|
G |------------------------15b17p13h15p13h15--|
D |-------------------------------------------|
A |-------------------------------------------|
E |-------------------------------------------|

E |--21b22-21-19-17-------------------------------------20b21--|
B |-----------------21-15b16------------------s19-20-19--------|
G |--------------------------17-15-----------------------------|
D |--------------------------------17-15-----------------------|
A |--------------------------------------17/-------------------|
E |------------------------------------------------------------|

En este Coro: Sube 1 tono más:
      Am     -     F     -     C    -    E

E |-----------------------------------------------|
B |-----------------------------------------------|
G |--------------------------55555555---99999999--|terninas con
D |--77777777----33333333----55555555---99999999--|esto
A |--77777777----33333333----33333333---77777777--|o con lo de 
E |--55555555----11111111-------------------------|abajo


(Am)     (F)      (C)   (E)
Ven llévame del dolor
(Am)     (F)      (C)   (E)
Ven, llévame del dolor


(Am)     (F)      (C)   (E)
Narana,      Llévame, llévame, Llévame
    '------- (3x) -------'
E |-----------------------------------|
B |-----------------------------------|
G |-----------------------------------|
D |-----------------------------------|
A |--7h8-7-7h8-7-8-7p5----------------|
E |--------------------8----7p5-4-5s7-|
(Am)     (F)  (C)  (E)
Veeen llevameeeeeee......
    '------- (2x) -------'
E |-------------------------------------------------------|
B |-------------------------------------------------------|
G |-------------------------------------------------------|
D |-------------------------------------------------------|
A |--7h8-7-7h8-7-8-7p5-----10p8-7-7h8-7-8-7p5---------5s7-|
E |--------------------8----------------------8-7p5-4-----|


Que te parecio? Calificalo con estrellas!!

Rating: 6.7/10 (50 votos)

Este fichero es trabajo propio de su transcriptor y representa su interpretación personal de la canción. El material contenido en esta página es para exclusivo uso privado, por lo que se prohibe su reproducción o retransmisión, así como su uso para fines comerciales.


Comentario de TORRE_GUITAR
escuchenla bien la cancion eto va para mis amigos(as) fray martin
Deja tus comentarios:

Letras de Kudai
Letras de canciones | Musica Independiente