Enviado por:
Pancho_01

Bersuit Vergarabat, El Tiempo No Para

----------------------------------------2----------------3--------
--3/5--3-------------3----1-----1-3-------3-----4------5----------
----------4-2-0--4-2--------0/2-------2---------------------------
------------------------------------0---------4------3------------
------------------------0-------------------2------5--------------
------------------------------------------------------------------

                                *
---------------------------------------------------2--------------
-353----------3----------------1-0-1-1---------------3-----4------
-----5-4----0---2h--2/0/2------2-2-2-2-----------2----------------
-----------------------------2-----------------0---------4--------
---------------------------0-----------0-2-3-4---------2----------
----------3-------------------------------------------------------


-----8--------12--------------------------------------------------
-------8----------------------------------------------------------
-3/9-----9/12-----------------------------------------------------
------------------------------------------------------------------
------------------------------------------------------------------
------------------------------------------------------------------
Aviso: Este fichero es trabajo propio de su transcriptor y representa su interpretación personal de la canción. El material contenido en esta página es para exclusivo uso privado, por lo que se prohibe su reproducción o retransmisión, así como su uso para fines comerciales.
comentario del colaborador: *En ese acorde saca el dedo indice del LaM

Califica esta canción


Comentarios en Facebook