Acordes y tablaturas para guitarra

Acordes y Tablaturas
Usuario: Password:

Buscar:
Acordes y Tablaturas >> Letra A >> Acordes de Amen >> La chata
Tablatura de La chata, Amen

La chata

Amen






Intro:
======

              *Z*
  /--------------------------
e|-2--2-2-2-2h3p2-2-0-0-2-2-3~-----------------|*Z*|--5--|-2..|
B|-3--3-3-3-3-3-3-3-3-3-3-3-3~-----------------|---|---5-|-3..|
G|-2--2-2-2-2-2-2-2-2-2-2-2-4~-----------------|---|-4--4|-2..|
D|-0--0-0-0-0-0-0-0-0-0-0-0-5~-----------------|---|-----|-0..|
A|--------------------------5~-----------------|---|-----|----|
E|--------------------------3~(Parte del bajo)-|---|-----|----|


           D
Yo se que nunca podre
             Sim
dejar de quererte una vez
                G
y es que aunque no puedas hablarme
Gm                 A (silencio)
  se bien lo que quieres decirme..

            D
No se si pueda resistir
               Sim
el tiempo lo sabra decir
                 G
y es que aunque no te tengo cerca
Gm            A (con palm mute)
  aun te puedo sentir


Coro:
=====

             D
Y solo yo quiero ohhh
                 Sim
que seas mia otravez
         G             Gm
y aaaqui en mi corazon
                A
nunca te olvidare


Solo:
=====


e|-----------------------------------------------|
B|-12^p10----------------------------------------|
G|--------11-9/11-9----------9-9/11-11~~11~~9/11-|
D|------------------12--9-12---------------------|
A|--------------------12-------------------------|
E|-----------------------------------------------|


e|----------------------------------------|
B|-12^p10---------------------------------|
G|--------11-9/11-9--------9-11-----------|
D|------------------12--12------12-9-12^~-|
A|--------------------12------------------|
E|----------------------------------------|


e|---10-12-12/14-14v(x5)..14p12--12/14--12/14-12---12/14-12-----
B|-12--------------------------15---------------15---------15-   12-14v(x5)
G|--------------------------------------------------------------
D|--------------------------------------------------------------
A|-------------------------------------------------------------
E|-------------------------------------------------------------


e|------------------------------------------------------12--12-  14^~~v
B|---------------------------------------12--12-15-12-15--15---
G|------------------------11--11-14-11-14--14-----------------
D|---------12--12-14-12-14--14--------------------------------
A|-14-12-14--14-------------------------------------------------
E|--------------------------------------------------------------


e|-14^~~p12----12~14^vv-14^vv-14^vv-14^~~15^(off)-
B|----------15------------------------------------
G|------------------------------------------------
D|------------------------------------------------
A|------------------------------------------------
E|------------------------------------------------


e|-17^br~~15-14-15-14-------17^br~~15-14-15-14------------------
B|--------------------15-15--------------------15-15------15-17-  15-17
G|---------------------------------------------------14/16-----
D|--------------------------------------------------------------
A|-------------------------------------------------------------
E|--------------------------------------------------------------


e|-14-15-16-17^(17)-----------------------17vv---------19-18-17-  16^-
B|-----------------17-15-17-15---15-15^v~~-------15-15--------
G|----------------------------16---------------16---------------
D|--------------------------------------------------------------
A|--------------------------------------------------------------
E|--------------------------------------------------------------


e|-13^vv-13----------------------------------------|
B|---------15-12-10h12p10---10-12-10-12-10-12-10~~-|
G|------------------------11-----------------------|
D|-------------------------------------------------|
A|-------------------------------------------------|
E|-------------------------------------------------|


             D
No se si pueda resistir
          Sim
.     .     .     .    .
             G
y es que contigo aprendi
Gm                                A
  la verdad, nose si a vivir o morir


Coro x2
----------------------------------------------------------------

Outro
======


                  D            G  D          G    D               D-
e|--------------------------------2.2.3.3.3.3/5-3---------------
B|-3-2-0--------------------------------------------------------
G|-------2--------7.7.8.8.8.8/10-8---------------7.7.8.8.8.8/10-  8-7-
D|--------------------------------------------------------------
A|--------------------------------------------------------------
E|--------------------------------------------------------------

Termina en D-


Que te parecio? Calificalo con estrellas!!

Rating: 5.8/10 (99 votos)

Este fichero es trabajo propio de su transcriptor y representa su interpretación personal de la canción. El material contenido en esta página es para exclusivo uso privado, por lo que se prohibe su reproducción o retransmisión, así como su uso para fines comerciales.


Comentario de kiwey
creo q la transcripcion tiene algunas fallas trata de corregurlas si las encuentras y me pasas la vox ps [email protected] ojala q mi pata marcelo motta nu se enuje jeje
Deja tus comentarios:
Letras de canciones | Musica Independiente