Acordes y tablaturas para guitarra

Acordes y Tablaturas
Usuario: Password:

Buscar:
Acordes y Tablaturas >> Letra J >> Acordes de Jonas Brother >> Shelf
Acordes de Shelf, Jonas Brother

Shelf

Jonas Brother






a.am.bb5.bm.c.c5.d.e.fsosm.
g.g5.
e|--2--5--12--10--2----2--3--2--0-----2--5--12--10--8----2--3--2--0----|
B|---------------------------------3---------------------------------3-|
G|---------------------------------------------------------------------|
D|---------------------------------------------------------------------|
A|---------------------------------------------------------------------|
E|---------------------------------------------------------------------|

e|-------------------------------------------------------------|
B|--0--3--5--3-----3--5--8-8-7----7--8--5--3--0----------------|
G|--------------3-------------------------------2--------------|
D|-------------------------------------------------------------|
A|-------------------------------------------------------------|
E|-------------------------------------------------------------|

       			
D                F#m  
She's such a flirt
G         A   G     D
I Am the lonely heart
               F#m
Give it a chance
G       A    G       
For our love to start
F#m                Bm
But you'll never see
A            D     A     Bm
If you don't give me a shot
            G
To show you what I got


        D           A 
ut it's too late to pretend.
                   Bm          C
You know me better than I know myself.
                        G      Bb5      D   A   G 
Don't take my heart and put it on a shelf.




[CHORDS PREVIUS]ACORDES ANTERIORES 
Always someone else
The next guy who will make your cold heart melt
I'm gonna give my love to someone else.

I held your hand [ahh ahh]
It felt like a movie
I made some plans [ahh ahh]
But you were already 
Moving on now 
I'm stuck under a rainy cloud
But you don't seem to care
But it's alright cuz it's

Too late to pretend
You know me better than I know myself.
Don't take my heart and put it on a shelf.
Always someone else
The next guy who will make your cold heart melt
I'm gonna give my love to someone else.



C5           G5              D
I'm tired of wasting all my time
C5          G5
My heart is hanging on the line
E
Is it me, girl, or someone else?
        G              A 
Please take it off the shelf

D            F#m
Too late to pretend
            Bm                  C
You know me better than I know myself
                          G    Bb5
Don't take my heart and put it on a shelf




                 SOLO

e|--2-3-2-0----------|
B|----------3--------|
G|-------------------|
D|-------------------|
A|-------------------|
E|-------------------|X2
         lalalalala

e|--------------------------------|
B|--0--3--5--3-----3--5--8-8-7----|
G|--------------3-----------------|
D|--------------------------------|
A|--------------------------------|
E|--------------------------------|


D              A  
Always someone else

The next guy
         Bm                   C
Who will make your cold heart melt
          G               Bb5     G
I'm gonna give my love to someone else
A
Yeaaaah ,ohhh ho 

Que te parecio? Calificalo con estrellas!!

Rating: 6.7/10 (43 votos)

Este fichero es trabajo propio de su transcriptor y representa su interpretación personal de la canción. El material contenido en esta página es para exclusivo uso privado, por lo que se prohibe su reproducción o retransmisión, así como su uso para fines comerciales.


Comentario de Qekoo
TAB Y ACORDES SUENA BIEN !
Deja tus comentarios:
Letras de canciones | Musica Independiente