Enviado por: allman
Agrandar Letra
Reducir Letra
Imprimir



Jimi Hendrix, all along the watchtower

-------------------8-----------------4
-------------------8-----------------4
-------------------8-----------------4   x2
---8--8--10-10-10-----8--8--6--6--6---
---8--8--10-10-10-----8--8--6--6--6---
---6--6--8--8--8------6--6--4--4--4---


-------------------------------------------------------
---------11--13b-13b-13b-13b---13b--11-----------------
---10-12-------------------------------12--10-10-10-10-
-------------------------------------------------------
-------------------------------------------------------
-------------------------------------------------------


----------------------------------------------------
----------------------------------------------11s13-
--------8-10s12--10-12---8-10-8----8--10b--8--------
---8-10-------------------------10------------------
----------------------------------------------------
----------------------------------------------------


aguante hendrix
Aviso: Este fichero es trabajo propio de su transcriptor y representa su interpretación personal de la canción. El material contenido en esta página es para exclusivo uso privado, por lo que se prohibe su reproducción o retransmisión, así como su uso para fines comerciales.

Califica esta canción


Comentarios en Facebook