Enviado por:
henrymante

Joaquin Sabina, 19 Dias Y 500 Noches

19 dias y 500 noches!

Introducción:
-12-12-12-10----------10-10h12-10----------------
--------------13-13---------------13-13-12h13p12-
-------------------------------------------------
-------------------------------------------------
-------------------------------------------------
-------------------------------------------------


---------------------------------------------
---9---10--11---12--10----7--9--10--9--7--5--
---------------------------------------------
-9--11----12---13---11----7--9--11--9--7--6--
---------------------------------------------
---------------------------------------------


--------------------9---10---11-
-9--10--11--12--12--8----9---10-
--------------------9---10---11-
-9--11--12--13--13--------------
--------------------------------
--------------------------------


y escarcha en el pelo.

  -------------------
  -------------------
  -------------------
  -------------------
  ---0-1-2-2-4-5-6---
    -4-----------------

y quinientas noches.

  -------------------
  -------------------
  -------------------
  -------------------
  ---0-1-2-2-4-5-6---
    -4-----------------

19 días... 19 días... 19 días... Y 500 noches

Final:
-----------------------------------
-----------------------------------
-----------------------------------
-----------------------------1--2--
---0-1-2----2-4-5-6----2--4--------
-4---------------------------------
Aviso: Este fichero es trabajo propio de su transcriptor y representa su interpretación personal de la canción. El material contenido en esta página es para exclusivo uso privado, por lo que se prohibe su reproducción o retransmisión, así como su uso para fines comerciales.
comentario del colaborador: hola esta bn esta tablatura!!

Califica esta canción


Comentarios en Facebook