Enviado por:
eddu

Bersuit Vergarabat, Laten Bolas

 [Introduccion]:

e|------------------------------
B|------------------------------
G|------------------------------
D|-6-6-4-6--6-4-6--6-4-6-7-6-4--
A|------------------------------
E|------------------------------

e|------------------------------
B|------------------------------
G|------------------------------
D|-----------------------4------
A|-7-7-5-7--7-5-7--7-5-7---7-5--
E|------------------------------

[x2]

      E
Yo no creo en la suerte
      C
Ni en error ni accidentes
     E
Solo veo mandatos
       C                   D
Que asechan mi inconsciente
       E
Que te atan las manos
     C
O te cortan las piernas
     E                    C              D
El deseo es esteril el misterio sin pena siempre

      E                         G            A 
Laten bolas, laten bolas, que dominan, que devoran
      E                         G            A 
Laten bolas, laten bolas, bien adentro laten bolas


Una hembra servida una danza caliente
El dolor reprimido
cuando hay q ir al frente
el macho se hace blanco
y el cobarde mas rudo
es un salto a la hoguera
y lo q sos se hace uno

laten bolas, laten bolas, que iluminan, que devoran
laten bolas, laten bolas, bien adentro laten bolas

e|------------------------------
B|------------------------------
G|------------------------------
D|-6-6-4-6--6-4-6--6-4-6-7-6-4--
A|------------------------------
E|------------------------------

e|------------------------------
B|------------------------------
G|------------------------------
D|-----------------------4------
A|-7-7-5-7--7-5-7--7-5-7---7-5--
E|------------------------------

          E
Cuando el pozo te llama o te traga la tierra
      Em
O te atas a la cama y te sentís una mierda
      E
Te persigues de todo y solo seas tu mente
     C              D
Y la unica idea es odiar a la gente
Cuando estes desmedido con la luz en la frente
Con un Cristo jodido que castiga y ni siente
Se levante el mas puro y declaren las guerras
Una fuerza sagrada esperando entre tus piernas

Laten bolas, laten bolas, que iluminan, que devoran
Laten bolas, laten bolas, bien adentro laten bolas

[Solo de Guitarra]:

C E C D

e|------------------------------
B|------------------------------
G|------------------------------
D|-6-6-4-6--6-4-6--6-4-6-7-6-4--
A|------------------------------
E|------------------------------

e|------------------------------
B|------------------------------
G|------------------------------
D|-----------------------4------
A|-7-7-5-7--7-5-7--7-5-7---7-5--
E|------------------------------


E
 
Aviso: Este fichero es trabajo propio de su transcriptor y representa su interpretación personal de la canción. El material contenido en esta página es para exclusivo uso privado, por lo que se prohibe su reproducción o retransmisión, así como su uso para fines comerciales.
comentario del colaborador: Espero que les sirva ;) Un abrazo EDU [email protected]

Califica esta canción


Comentarios en Facebook