Enviado por: synrax
Agrandar Letra
Reducir Letra
Imprimir



Camila, Todo Cambio (intro)

\__________________________________________________________________
e|------------------------------------------------------------7----
B|--------------------------6h8-8^-6--8^-6h8-----6h8-8^-6--8^------
G|-----------5-5h7------5h7------------------5h7-------------------
D|-------5h7-------5h7---------------------------------------------
A|-----------------------------------------------------------------
E|-----------------------------------------------------------------
/¯¯¯¯¯¯¯¯¯¯¯¯¯¯¯¯¯¯¯¯¯¯¯¯¯¯¯¯¯¯¯¯¯¯¯¯¯¯¯¯¯¯¯¯¯¯¯¯¯¯¯¯¯¯¯¯¯¯¯¯¯¯¯¯¯¯




\__________________________________________________________________
e|---8h10-8--------------------------------------------------------
B|---8h10-8----------------6-6h8-----------------------------------
G|-------------------5-5h7-------5-\3------------------------------
D|----------10h12-10-----------------------------------------------
A|----------10h12-10-----------------------------------------------
E|-----------------------------------------------------------------
/¯¯¯¯¯¯¯¯¯¯¯¯¯¯¯¯¯¯¯¯¯¯¯¯¯¯¯¯¯¯¯¯¯¯¯¯¯¯¯¯¯¯¯¯¯¯¯¯¯¯¯¯¯¯¯¯¯¯¯¯¯¯¯¯¯¯
Aviso: Este fichero es trabajo propio de su transcriptor y representa su interpretación personal de la canción. El material contenido en esta página es para exclusivo uso privado, por lo que se prohibe su reproducción o retransmisión, así como su uso para fines comerciales.
comentario del colaborador: seguun yO... esta bien perO aceptO cOrrecciOnez si es q Laz ay ^^... mi cOrreO es [email protected] ^^

Califica esta canción


Comentarios en Facebook